ISO-10303-21;
HEADER;
FILE_DESCRIPTION (( 'STEP AP214' ),
    '1' );
FILE_NAME ('CR 3''''x2''''.STEP',
    '2026-01-13T08:36:24',
    ( '' ),
    ( '' ),
    'SwSTEP 2.0',
    'SolidWorks 2018',
    '' );
FILE_SCHEMA (( 'AUTOMOTIVE_DESIGN' ));
ENDSEC;

DATA;
#1 = DIRECTION ( 'NONE',  ( 0.0000000000000000000, 0.0000000000000000000, 1.000000000000000000 ) ) ;
#2 = DIRECTION ( 'NONE',  ( -1.000000000000000000, -7.434529182757744162E-17, -0.0000000000000000000 ) ) ;
#3 = AXIS2_PLACEMENT_3D ( 'NONE', #46, #198, #35 ) ;
#4 = ORIENTED_EDGE ( 'NONE', *, *, #80, .T. ) ;
#5 = COLOUR_RGB ( '',0.7921568627450980005, 0.8196078431372548767, 0.9333333333333333481 ) ;
#6 = SHAPE_DEFINITION_REPRESENTATION ( #209, #26 ) ;
#7 = ORIENTED_EDGE ( 'NONE', *, *, #80, .F. ) ;
#8 = FACE_OUTER_BOUND ( 'NONE', #37, .T. ) ;
#9 = CIRCLE ( 'NONE', #133, 23.75000000000000000 ) ;
#10 = ADVANCED_FACE ( 'NONE', ( #27 ), #17, .T. ) ;
#11 = DIRECTION ( 'NONE',  ( -0.9839373101060749915, 0.1785143405478163692, 2.186170157537840183E-17 ) ) ;
#12 = ADVANCED_FACE ( 'NONE', ( #57, #62 ), #88, .F. ) ;
#13 = CONICAL_SURFACE ( 'NONE', #144, 36.45000000000000284, 0.1794763310902223463 ) ;
#14 = CARTESIAN_POINT ( 'NONE',  ( 70.00000000000000000, -32.64826832026582792, 0.0000000000000000000 ) ) ;
#15 = CARTESIAN_POINT ( 'NONE',  ( 70.00000000000000000, -7.248268320265832010, 0.0000000000000000000 ) ) ;
#16 = DIRECTION ( 'NONE',  ( 7.434529182757745395E-17, -1.000000000000000000, 0.0000000000000000000 ) ) ;
#17 = CONICAL_SURFACE ( 'NONE', #109, 25.39999999999999858, 0.1794763310902223463 ) ;
#18 = FILL_AREA_STYLE_COLOUR ( '', #5 ) ;
#19 = APPLICATION_PROTOCOL_DEFINITION ( 'draft international standard', 'automotive_design', 1998, #85 ) ;
#20 = SURFACE_STYLE_USAGE ( .BOTH. , #54 ) ;
#21 = ORIENTED_EDGE ( 'NONE', *, *, #167, .F. ) ;
#22 = CONICAL_SURFACE ( 'NONE', #40, 25.39999999999999858, 0.1794763310902223463 ) ;
#23 = CARTESIAN_POINT ( 'NONE',  ( 5.419771774230396555E-15, -43.69826832026583929, 0.0000000000000000000 ) ) ;
#24 = VERTEX_POINT ( 'NONE', #177 ) ;
#25 = CIRCLE ( 'NONE', #30, 38.10000000000000142 ) ;
#26 = ADVANCED_BREP_SHAPE_REPRESENTATION ( 'CR 3''''''''x2''''''''', ( #208, #113 ), #183 ) ;
#27 = FACE_OUTER_BOUND ( 'NONE', #116, .T. ) ;
#28 = CIRCLE ( 'NONE', #152, 25.39999999999999858 ) ;
#29 = EDGE_CURVE ( 'NONE', #65, #168, #184, .T. ) ;
#30 = AXIS2_PLACEMENT_3D ( 'NONE', #94, #82, #100 ) ;
#31 = ORIENTED_EDGE ( 'NONE', *, *, #90, .F. ) ;
#32 = ORIENTED_EDGE ( 'NONE', *, *, #102, .F. ) ;
#33 = EDGE_LOOP ( 'NONE', ( #95, #150 ) ) ;
#34 = DIRECTION ( 'NONE',  ( 7.434529182757745395E-17, -1.000000000000000000, 0.0000000000000000000 ) ) ;
#35 = DIRECTION ( 'NONE',  ( 7.434529182757745395E-17, -1.000000000000000000, 0.0000000000000000000 ) ) ;
#36 =( NAMED_UNIT ( * ) PLANE_ANGLE_UNIT ( ) SI_UNIT ( $, .RADIAN. ) );
#37 = EDGE_LOOP ( 'NONE', ( #47, #202, #59, #86 ) ) ;
#38 =( NAMED_UNIT ( * ) SI_UNIT ( $, .STERADIAN. ) SOLID_ANGLE_UNIT ( ) );
#39 = EDGE_CURVE ( 'NONE', #65, #44, #9, .T. ) ;
#40 = AXIS2_PLACEMENT_3D ( 'NONE', #51, #192, #194 ) ;
#41 = UNCERTAINTY_MEASURE_WITH_UNIT (LENGTH_MEASURE( 1.000000000000000082E-05 ), #126, 'distance_accuracy_value', 'NONE');
#42 = VERTEX_POINT ( 'NONE', #73 ) ;
#43 = PRODUCT_DEFINITION_CONTEXT ( 'detailed design', #85, 'design' ) ;
#44 = VERTEX_POINT ( 'NONE', #101 ) ;
#45 = ADVANCED_FACE ( 'NONE', ( #189 ), #13, .F. ) ;
#46 = CARTESIAN_POINT ( 'NONE',  ( 2.709885887115198278E-15, -7.248268320265836451, 0.0000000000000000000 ) ) ;
#47 = ORIENTED_EDGE ( 'NONE', *, *, #155, .F. ) ;
#48 = FACE_OUTER_BOUND ( 'NONE', #206, .T. ) ;
#49 = DIRECTION ( 'NONE',  ( -1.000000000000000000, -7.434529182757744162E-17, -0.0000000000000000000 ) ) ;
#50 = PRESENTATION_LAYER_ASSIGNMENT (  '', '', ( #121 ) ) ;
#51 = CARTESIAN_POINT ( 'NONE',  ( 70.00000000000000000, -7.248268320265832010, 0.0000000000000000000 ) ) ;
#52 = FILL_AREA_STYLE ('',( #18 ) ) ;
#53 =( LENGTH_UNIT ( ) NAMED_UNIT ( * ) SI_UNIT ( .MILLI., .METRE. ) );
#54 = SURFACE_SIDE_STYLE ('',( #105 ) ) ;
#55 = EDGE_LOOP ( 'NONE', ( #7, #179, #78, #164 ) ) ;
#56 = LINE ( 'NONE', #195, #205 ) ;
#57 = FACE_OUTER_BOUND ( 'NONE', #123, .T. ) ;
#58 = CIRCLE ( 'NONE', #61, 36.45000000000000284 ) ;
#59 = ORIENTED_EDGE ( 'NONE', *, *, #29, .T. ) ;
#60 = FACE_OUTER_BOUND ( 'NONE', #33, .T. ) ;
#61 = AXIS2_PLACEMENT_3D ( 'NONE', #112, #125, #16 ) ;
#62 = FACE_BOUND ( 'NONE', #190, .T. ) ;
#63 = CIRCLE ( 'NONE', #89, 38.10000000000000142 ) ;
#64 = ADVANCED_FACE ( 'NONE', ( #70, #60 ), #108, .F. ) ;
#65 = VERTEX_POINT ( 'NONE', #114 ) ;
#66 = DIRECTION ( 'NONE',  ( 7.434529182757745395E-17, -1.000000000000000000, 0.0000000000000000000 ) ) ;
#67 = DIRECTION ( 'NONE',  ( 0.0000000000000000000, -1.000000000000000000, 0.0000000000000000000 ) ) ;
#68 = CARTESIAN_POINT ( 'NONE',  ( 70.00000000000000000, -32.64826832026582792, 0.0000000000000000000 ) ) ;
#69 = ORIENTED_EDGE ( 'NONE', *, *, #39, .T. ) ;
#70 = FACE_BOUND ( 'NONE', #76, .T. ) ;
#71 = DIRECTION ( 'NONE',  ( -1.000000000000000000, -7.434529182757744162E-17, -0.0000000000000000000 ) ) ;
#72 = DIRECTION ( 'NONE',  ( 1.000000000000000000, 0.0000000000000000000, 0.0000000000000000000 ) ) ;
#73 = CARTESIAN_POINT ( 'NONE',  ( 70.00000000000000000, 18.15173167973416923, 3.888253587292847265E-15 ) ) ;
#74 =( LENGTH_UNIT ( ) NAMED_UNIT ( * ) SI_UNIT ( .MILLI., .METRE. ) );
#75 = DIRECTION ( 'NONE',  ( 7.434529182757744162E-17, -1.000000000000000000, 0.0000000000000000000 ) ) ;
#76 = EDGE_LOOP ( 'NONE', ( #21, #104 ) ) ;
#77 = PRESENTATION_LAYER_ASSIGNMENT (  '', '', ( #84 ) ) ;
#78 = ORIENTED_EDGE ( 'NONE', *, *, #136, .T. ) ;
#79 = ORIENTED_EDGE ( 'NONE', *, *, #141, .T. ) ;
#80 = EDGE_CURVE ( 'NONE', #44, #65, #213, .T. ) ;
#81 = DIRECTION ( 'NONE',  ( 0.0000000000000000000, -1.000000000000000000, 0.0000000000000000000 ) ) ;
#82 = DIRECTION ( 'NONE',  ( -1.000000000000000000, -7.434529182757744162E-17, -0.0000000000000000000 ) ) ;
#83 = CARTESIAN_POINT ( 'NONE',  ( 2.709885887115198278E-15, -7.248268320265836451, 0.0000000000000000000 ) ) ;
#84 = STYLED_ITEM ( 'NONE', ( #153 ), #26 ) ;
#85 = APPLICATION_CONTEXT ( 'automotive_design' ) ;
#86 = ORIENTED_EDGE ( 'NONE', *, *, #167, .T. ) ;
#87 =( NAMED_UNIT ( * ) PLANE_ANGLE_UNIT ( ) SI_UNIT ( $, .RADIAN. ) );
#88 = PLANE ( 'NONE',  #118 ) ;
#89 = AXIS2_PLACEMENT_3D ( 'NONE', #160, #176, #124 ) ;
#90 = EDGE_CURVE ( 'NONE', #42, #24, #56, .T. ) ;
#91 = VECTOR ( 'NONE', #211, 1000.000000000000114 ) ;
#92 = LINE ( 'NONE', #14, #180 ) ;
#93 = EDGE_CURVE ( 'NONE', #119, #140, #92, .T. ) ;
#94 = CARTESIAN_POINT ( 'NONE',  ( 2.832555618630700783E-15, -7.248268320265836451, 0.0000000000000000000 ) ) ;
#95 = ORIENTED_EDGE ( 'NONE', *, *, #182, .T. ) ;
#96 = CIRCLE ( 'NONE', #159, 36.45000000000000284 ) ;
#97 = DIRECTION ( 'NONE',  ( -1.000000000000000000, -7.434529182757744162E-17, -0.0000000000000000000 ) ) ;
#98 = DIRECTION ( 'NONE',  ( -0.9839373101060748805, -0.1785143405478165357, 0.0000000000000000000 ) ) ;
#99 = FILL_AREA_STYLE ('',( #147 ) ) ;
#100 = DIRECTION ( 'NONE',  ( 7.434529182757744162E-17, -1.000000000000000000, 0.0000000000000000000 ) ) ;
#101 = CARTESIAN_POINT ( 'NONE',  ( 70.00000000000000000, 16.50173167973417065, 3.686186865433533324E-15 ) ) ;
#102 = EDGE_CURVE ( 'NONE', #24, #140, #63, .T. ) ;
#103 = VECTOR ( 'NONE', #129, 1000.000000000000000 ) ;
#104 = ORIENTED_EDGE ( 'NONE', *, *, #136, .F. ) ;
#105 = SURFACE_STYLE_FILL_AREA ( #52 ) ;
#106 = AXIS2_PLACEMENT_3D ( 'NONE', #15, #158, #67 ) ;
#107 = DIRECTION ( 'NONE',  ( 1.000000000000000000, 7.434529182757744162E-17, 0.0000000000000000000 ) ) ;
#108 = PLANE ( 'NONE',  #193 ) ;
#109 = AXIS2_PLACEMENT_3D ( 'NONE', #143, #49, #111 ) ;
#110 = VERTEX_POINT ( 'NONE', #173 ) ;
#111 = DIRECTION ( 'NONE',  ( 0.0000000000000000000, -1.000000000000000000, 0.0000000000000000000 ) ) ;
#112 = CARTESIAN_POINT ( 'NONE',  ( 2.709885887115198278E-15, -7.248268320265836451, 0.0000000000000000000 ) ) ;
#113 = AXIS2_PLACEMENT_3D ( 'NONE', #178, #1, #72 ) ;
#114 = CARTESIAN_POINT ( 'NONE',  ( 70.00000000000000000, -30.99826832026582935, 0.0000000000000000000 ) ) ;
#115 = SURFACE_SIDE_STYLE ('',( #199 ) ) ;
#116 = EDGE_LOOP ( 'NONE', ( #197, #185, #204, #120 ) ) ;
#117 = DIRECTION ( 'NONE',  ( 0.0000000000000000000, -1.000000000000000000, 0.0000000000000000000 ) ) ;
#118 = AXIS2_PLACEMENT_3D ( 'NONE', #151, #203, #75 ) ;
#119 = VERTEX_POINT ( 'NONE', #68 ) ;
#120 = ORIENTED_EDGE ( 'NONE', *, *, #93, .F. ) ;
#121 = STYLED_ITEM ( 'NONE', ( #171 ), #208 ) ;
#122 = ORIENTED_EDGE ( 'NONE', *, *, #174, .F. ) ;
#123 = EDGE_LOOP ( 'NONE', ( #122, #188 ) ) ;
#124 = DIRECTION ( 'NONE',  ( 7.434529182757744162E-17, -1.000000000000000000, 0.0000000000000000000 ) ) ;
#125 = DIRECTION ( 'NONE',  ( -1.000000000000000000, -7.434529182757744162E-17, -0.0000000000000000000 ) ) ;
#126 =( LENGTH_UNIT ( ) NAMED_UNIT ( * ) SI_UNIT ( .MILLI., .METRE. ) );
#127 = APPLICATION_CONTEXT ( 'automotive_design' ) ;
#128 = PRODUCT ( 'CR 3''''''''x2''''''''', 'CR 3''''''''x2''''''''', '', ( #149 ) ) ;
#129 = DIRECTION ( 'NONE',  ( -0.9839373101060748805, -0.1785143405478165357, 0.0000000000000000000 ) ) ;
#130 = CARTESIAN_POINT ( 'NONE',  ( 70.00000000000000000, -7.248268320265832010, 0.0000000000000000000 ) ) ;
#131 = CLOSED_SHELL ( 'NONE', ( #45, #10, #191, #12, #157, #64 ) ) ;
#132 = CIRCLE ( 'NONE', #106, 25.39999999999999858 ) ;
#133 = AXIS2_PLACEMENT_3D ( 'NONE', #130, #166, #117 ) ;
#134 = PRODUCT_DEFINITION ( 'UNKNOWN', '', #156, #43 ) ;
#135 = UNCERTAINTY_MEASURE_WITH_UNIT (LENGTH_MEASURE( 1.000000000000000082E-05 ), #74, 'distance_accuracy_value', 'NONE');
#136 = EDGE_CURVE ( 'NONE', #110, #168, #58, .T. ) ;
#137 = LINE ( 'NONE', #142, #91 ) ;
#138 = MECHANICAL_DESIGN_GEOMETRIC_PRESENTATION_REPRESENTATION (  '', ( #121 ), #146 ) ;
#139 = CARTESIAN_POINT ( 'NONE',  ( 70.00000000000000000, -7.248268320265832010, 0.0000000000000000000 ) ) ;
#140 = VERTEX_POINT ( 'NONE', #214 ) ;
#141 = EDGE_CURVE ( 'NONE', #42, #119, #132, .T. ) ;
#142 = CARTESIAN_POINT ( 'NONE',  ( 0.0000000000000000000, 29.20173167973416639, 4.463837582892102934E-15 ) ) ;
#143 = CARTESIAN_POINT ( 'NONE',  ( 70.00000000000000000, -7.248268320265832010, 0.0000000000000000000 ) ) ;
#144 = AXIS2_PLACEMENT_3D ( 'NONE', #181, #2, #34 ) ;
#145 = DIRECTION ( 'NONE',  ( -7.434529182757744162E-17, 1.000000000000000000, 0.0000000000000000000 ) ) ;
#146 =( GEOMETRIC_REPRESENTATION_CONTEXT ( 3 ) GLOBAL_UNCERTAINTY_ASSIGNED_CONTEXT ( ( #41 ) ) GLOBAL_UNIT_ASSIGNED_CONTEXT ( ( #126, #163, #38 ) ) REPRESENTATION_CONTEXT ( 'NONE', 'WORKASPACE' ) );
#147 = FILL_AREA_STYLE_COLOUR ( '', #154 ) ;
#148 =( NAMED_UNIT ( * ) SI_UNIT ( $, .STERADIAN. ) SOLID_ANGLE_UNIT ( ) );
#149 = PRODUCT_CONTEXT ( 'NONE', #127, 'mechanical' ) ;
#150 = ORIENTED_EDGE ( 'NONE', *, *, #102, .T. ) ;
#151 = CARTESIAN_POINT ( 'NONE',  ( 70.00000000000000000, 18.15173167973416923, 0.0000000000000000000 ) ) ;
#152 = AXIS2_PLACEMENT_3D ( 'NONE', #175, #71, #81 ) ;
#153 = PRESENTATION_STYLE_ASSIGNMENT (( #200 ) ) ;
#154 = COLOUR_RGB ( '',0.7921568627450980005, 0.8196078431372548767, 0.9333333333333333481 ) ;
#155 = EDGE_CURVE ( 'NONE', #44, #110, #137, .T. ) ;
#156 = PRODUCT_DEFINITION_FORMATION_WITH_SPECIFIED_SOURCE ( 'ANY', '', #128, .NOT_KNOWN. ) ;
#157 = ADVANCED_FACE ( 'NONE', ( #8 ), #186, .F. ) ;
#158 = DIRECTION ( 'NONE',  ( -1.000000000000000000, -7.434529182757744162E-17, -0.0000000000000000000 ) ) ;
#159 = AXIS2_PLACEMENT_3D ( 'NONE', #83, #97, #66 ) ;
#160 = CARTESIAN_POINT ( 'NONE',  ( 2.832555618630700783E-15, -7.248268320265836451, 0.0000000000000000000 ) ) ;
#161 = DIRECTION ( 'NONE',  ( 0.0000000000000000000, -1.000000000000000000, 0.0000000000000000000 ) ) ;
#162 = CARTESIAN_POINT ( 'NONE',  ( -6.133486575775133911E-17, 30.85173167973416497, 0.0000000000000000000 ) ) ;
#163 =( NAMED_UNIT ( * ) PLANE_ANGLE_UNIT ( ) SI_UNIT ( $, .RADIAN. ) );
#164 = ORIENTED_EDGE ( 'NONE', *, *, #29, .F. ) ;
#165 = APPLICATION_PROTOCOL_DEFINITION ( 'draft international standard', 'automotive_design', 1998, #127 ) ;
#166 = DIRECTION ( 'NONE',  ( -1.000000000000000000, -7.434529182757744162E-17, -0.0000000000000000000 ) ) ;
#167 = EDGE_CURVE ( 'NONE', #168, #110, #96, .T. ) ;
#168 = VERTEX_POINT ( 'NONE', #172 ) ;
#169 = PRODUCT_RELATED_PRODUCT_CATEGORY ( 'part', '', ( #128 ) ) ;
#170 = UNCERTAINTY_MEASURE_WITH_UNIT (LENGTH_MEASURE( 1.000000000000000082E-05 ), #53, 'distance_accuracy_value', 'NONE');
#171 = PRESENTATION_STYLE_ASSIGNMENT (( #20 ) ) ;
#172 = CARTESIAN_POINT ( 'NONE',  ( 5.419771774230396555E-15, -43.69826832026583929, 0.0000000000000000000 ) ) ;
#173 = CARTESIAN_POINT ( 'NONE',  ( 0.0000000000000000000, 29.20173167973416639, 4.463837582892102934E-15 ) ) ;
#174 = EDGE_CURVE ( 'NONE', #119, #42, #28, .T. ) ;
#175 = CARTESIAN_POINT ( 'NONE',  ( 70.00000000000000000, -7.248268320265832010, 0.0000000000000000000 ) ) ;
#176 = DIRECTION ( 'NONE',  ( -1.000000000000000000, -7.434529182757744162E-17, -0.0000000000000000000 ) ) ;
#177 = CARTESIAN_POINT ( 'NONE',  ( 2.832555618630700783E-15, 30.85173167973416497, 4.665904304751415298E-15 ) ) ;
#178 = CARTESIAN_POINT ( 'NONE',  ( 0.0000000000000000000, 0.0000000000000000000, 0.0000000000000000000 ) ) ;
#179 = ORIENTED_EDGE ( 'NONE', *, *, #155, .T. ) ;
#180 = VECTOR ( 'NONE', #98, 1000.000000000000000 ) ;
#181 = CARTESIAN_POINT ( 'NONE',  ( 2.709885887115198278E-15, -7.248268320265836451, 0.0000000000000000000 ) ) ;
#182 = EDGE_CURVE ( 'NONE', #140, #24, #25, .T. ) ;
#183 =( GEOMETRIC_REPRESENTATION_CONTEXT ( 3 ) GLOBAL_UNCERTAINTY_ASSIGNED_CONTEXT ( ( #135 ) ) GLOBAL_UNIT_ASSIGNED_CONTEXT ( ( #74, #36, #148 ) ) REPRESENTATION_CONTEXT ( 'NONE', 'WORKASPACE' ) );
#184 = LINE ( 'NONE', #23, #103 ) ;
#185 = ORIENTED_EDGE ( 'NONE', *, *, #90, .T. ) ;
#186 = CONICAL_SURFACE ( 'NONE', #3, 36.45000000000000284, 0.1794763310902223463 ) ;
#187 = AXIS2_PLACEMENT_3D ( 'NONE', #139, #210, #161 ) ;
#188 = ORIENTED_EDGE ( 'NONE', *, *, #141, .F. ) ;
#189 = FACE_OUTER_BOUND ( 'NONE', #55, .T. ) ;
#190 = EDGE_LOOP ( 'NONE', ( #69, #4 ) ) ;
#191 = ADVANCED_FACE ( 'NONE', ( #48 ), #22, .T. ) ;
#192 = DIRECTION ( 'NONE',  ( -1.000000000000000000, -7.434529182757744162E-17, -0.0000000000000000000 ) ) ;
#193 = AXIS2_PLACEMENT_3D ( 'NONE', #162, #107, #145 ) ;
#194 = DIRECTION ( 'NONE',  ( 0.0000000000000000000, -1.000000000000000000, 0.0000000000000000000 ) ) ;
#195 = CARTESIAN_POINT ( 'NONE',  ( 70.00000000000000000, 18.15173167973416923, 3.110602869834276865E-15 ) ) ;
#196 = MECHANICAL_DESIGN_GEOMETRIC_PRESENTATION_REPRESENTATION (  '', ( #84 ), #207 ) ;
#197 = ORIENTED_EDGE ( 'NONE', *, *, #174, .T. ) ;
#198 = DIRECTION ( 'NONE',  ( -1.000000000000000000, -7.434529182757744162E-17, -0.0000000000000000000 ) ) ;
#199 = SURFACE_STYLE_FILL_AREA ( #99 ) ;
#200 = SURFACE_STYLE_USAGE ( .BOTH. , #115 ) ;
#201 =( NAMED_UNIT ( * ) SI_UNIT ( $, .STERADIAN. ) SOLID_ANGLE_UNIT ( ) );
#202 = ORIENTED_EDGE ( 'NONE', *, *, #39, .F. ) ;
#203 = DIRECTION ( 'NONE',  ( -1.000000000000000000, -7.434529182757744162E-17, 0.0000000000000000000 ) ) ;
#204 = ORIENTED_EDGE ( 'NONE', *, *, #182, .F. ) ;
#205 = VECTOR ( 'NONE', #11, 1000.000000000000114 ) ;
#206 = EDGE_LOOP ( 'NONE', ( #31, #79, #212, #32 ) ) ;
#207 =( GEOMETRIC_REPRESENTATION_CONTEXT ( 3 ) GLOBAL_UNCERTAINTY_ASSIGNED_CONTEXT ( ( #170 ) ) GLOBAL_UNIT_ASSIGNED_CONTEXT ( ( #53, #87, #201 ) ) REPRESENTATION_CONTEXT ( 'NONE', 'WORKASPACE' ) );
#208 = MANIFOLD_SOLID_BREP ( 'Revolve1', #131 ) ;
#209 = PRODUCT_DEFINITION_SHAPE ( 'NONE', 'NONE',  #134 ) ;
#210 = DIRECTION ( 'NONE',  ( -1.000000000000000000, -7.434529182757744162E-17, -0.0000000000000000000 ) ) ;
#211 = DIRECTION ( 'NONE',  ( -0.9839373101060749915, 0.1785143405478163692, 2.186170157537840183E-17 ) ) ;
#212 = ORIENTED_EDGE ( 'NONE', *, *, #93, .T. ) ;
#213 = CIRCLE ( 'NONE', #187, 23.75000000000000000 ) ;
#214 = CARTESIAN_POINT ( 'NONE',  ( 2.832555618630700783E-15, -45.34826832026583787, 0.0000000000000000000 ) ) ;
ENDSEC;
END-ISO-10303-21;
