ISO-10303-21;
HEADER;
/****************************************************************
 * Generated by software with PDE/Lib inside                    *
 * PDElib Version v51a, created Thu 12/14/2006                  *
 * International Technegroup Inc. (www.iti-oh.com)              *
 ****************************************************************/
FILE_DESCRIPTION((''),'2;1');
FILE_NAME('T:\\Arbeitspl\S\dtze\\Aushilfe\\KPeters\\3D\\Steps 08_10\\10196\\10196200X000.stp','2010-09-03T11:25:17',('thilbrands'),(''),'Autodesk Inventor 2008','Autodesk Inventor 2008','');
FILE_SCHEMA(('AUTOMOTIVE_DESIGN { 1 0 10303 214 1 1 1 1 }'));
ENDSEC;
DATA;
#5=APPLICATION_CONTEXT('automotive design');
#6=APPLICATION_PROTOCOL_DEFINITION('International Standard','automotive_design',2001,#5);
#7=PRODUCT_CONTEXT('',#5,'mechanical');
#8=PRODUCT('10196100X000','10196100X000',$,(#7));
#9=PRODUCT_RELATED_PRODUCT_CATEGORY('part',$,(#8));
#10=PRODUCT_DEFINITION_FORMATION('',$,#8);
#11=PRODUCT_DEFINITION_CONTEXT('part definition',#5,'design');
#12=PRODUCT_DEFINITION('',$,#10,#11);
#18=(NAMED_UNIT(*)PLANE_ANGLE_UNIT()SI_UNIT($,.RADIAN.));
#19=DIMENSIONAL_EXPONENTS(0.0,0.0,0.0,0.0,0.0,0.0,0.0);
#20=PLANE_ANGLE_MEASURE_WITH_UNIT(PLANE_ANGLE_MEASURE(0.017453292500000),#18);
#24=(CONVERSION_BASED_UNIT('DEGREE',#20)NAMED_UNIT(#19)PLANE_ANGLE_UNIT());
#28=(NAMED_UNIT(*)SI_UNIT($,.STERADIAN.)SOLID_ANGLE_UNIT());
#32=(LENGTH_UNIT()NAMED_UNIT(*)SI_UNIT(.MILLI.,.METRE.));
#34=UNCERTAINTY_MEASURE_WITH_UNIT(LENGTH_MEASURE(0.010000000000000),#32,'DISTANCE_ACCURACY_VALUE','');
#36=(GEOMETRIC_REPRESENTATION_CONTEXT(3)GLOBAL_UNCERTAINTY_ASSIGNED_CONTEXT((#34))GLOBAL_UNIT_ASSIGNED_CONTEXT((#24,#28,#32))REPRESENTATION_CONTEXT('None','None'));
#37=AXIS2_PLACEMENT_3D('',#38,#39,#40);
#38=CARTESIAN_POINT('',(0.0,0.0,0.0));
#39=DIRECTION('',(0.0,0.0,1.0));
#40=DIRECTION('',(1.0,0.0,0.0));
#41=SHAPE_REPRESENTATION('',(#37),#36);
#42=PRODUCT_DEFINITION_SHAPE('','',#12);
#43=SHAPE_DEFINITION_REPRESENTATION(#42,#41);
#49=(NAMED_UNIT(*)PLANE_ANGLE_UNIT()SI_UNIT($,.RADIAN.));
#50=DIMENSIONAL_EXPONENTS(0.0,0.0,0.0,0.0,0.0,0.0,0.0);
#51=PLANE_ANGLE_MEASURE_WITH_UNIT(PLANE_ANGLE_MEASURE(0.017453292500000),#49);
#55=(CONVERSION_BASED_UNIT('DEGREE',#51)NAMED_UNIT(#50)PLANE_ANGLE_UNIT());
#59=(NAMED_UNIT(*)SI_UNIT($,.STERADIAN.)SOLID_ANGLE_UNIT());
#63=(LENGTH_UNIT()NAMED_UNIT(*)SI_UNIT(.MILLI.,.METRE.));
#65=UNCERTAINTY_MEASURE_WITH_UNIT(LENGTH_MEASURE(0.000001000000000),#63,'DISTANCE_ACCURACY_VALUE','');
#67=(GEOMETRIC_REPRESENTATION_CONTEXT(3)GLOBAL_UNCERTAINTY_ASSIGNED_CONTEXT((#65))GLOBAL_UNIT_ASSIGNED_CONTEXT((#55,#59,#63))REPRESENTATION_CONTEXT('','3D'));
#68=CARTESIAN_POINT('',(-10.000000000000011,0.0,0.0));
#69=DIRECTION('',(1.0,1.644775E-016,0.0));
#70=DIRECTION('',(0.0,0.0,-1.0));
#71=AXIS2_PLACEMENT_3D('',#68,#69,#70);
#72=TOROIDAL_SURFACE('',#71,37.950000000000003,0.799999999999998);
#73=CARTESIAN_POINT('',(-9.248245903371295,38.223616114660530,0.0));
#74=VERTEX_POINT('',#73);
#75=CARTESIAN_POINT('',(-9.248245903371288,-1.521128E-015,0.0));
#76=DIRECTION('',(1.0,0.0,0.0));
#77=DIRECTION('',(0.0,1.0,0.0));
#78=AXIS2_PLACEMENT_3D('',#75,#76,#77);
#79=CIRCLE('',#78,38.223616114660530);
#80=EDGE_CURVE('',#74,#74,#79,.T.);
#81=ORIENTED_EDGE('',*,*,#80,.F.);
#82=EDGE_LOOP('',(#81));
#83=FACE_OUTER_BOUND('',#82,.T.);
#84=CARTESIAN_POINT('',(-10.000000000000018,38.749999999999993,0.0));
#85=VERTEX_POINT('',#84);
#86=CARTESIAN_POINT('',(-10.000000000000011,-1.644775E-015,0.0));
#87=DIRECTION('',(1.0,0.0,0.0));
#88=DIRECTION('',(0.0,1.0,0.0));
#89=AXIS2_PLACEMENT_3D('',#86,#87,#88);
#90=CIRCLE('',#89,38.749999999999993);
#91=EDGE_CURVE('',#85,#85,#90,.T.);
#92=ORIENTED_EDGE('',*,*,#91,.T.);
#93=EDGE_LOOP('',(#92));
#94=FACE_BOUND('',#93,.T.);
#95=ADVANCED_FACE('',(#83,#94),#72,.T.);
#96=CARTESIAN_POINT('',(-8.173140361196428,-1.344298E-015,0.0));
#97=DIRECTION('',(-1.0,-1.644775E-016,0.0));
#98=DIRECTION('',(0.0,1.0,0.0));
#99=AXIS2_PLACEMENT_3D('',#96,#97,#98);
#100=CONICAL_SURFACE('',#99,35.269787914004596,69.999999999999929);
#101=CARTESIAN_POINT('',(-7.098034819021573,32.315959713348661,0.0));
#102=VERTEX_POINT('',#101);
#103=CARTESIAN_POINT('',(-7.098034819021567,-1.167467E-015,0.0));
#104=DIRECTION('',(1.0,0.0,0.0));
#105=DIRECTION('',(0.0,1.0,0.0));
#106=AXIS2_PLACEMENT_3D('',#103,#104,#105);
#107=CIRCLE('',#106,32.315959713348661);
#108=EDGE_CURVE('',#102,#102,#107,.T.);
#109=ORIENTED_EDGE('',*,*,#108,.F.);
#110=EDGE_LOOP('',(#109));
#111=FACE_OUTER_BOUND('',#110,.T.);
#112=ORIENTED_EDGE('',*,*,#80,.T.);
#113=EDGE_LOOP('',(#112));
#114=FACE_BOUND('',#113,.T.);
#115=ADVANCED_FACE('',(#111,#114),#100,.T.);
#116=CARTESIAN_POINT('',(-5.218649577449741,-3.796280E-015,30.999999999999993));
#117=CARTESIAN_POINT('',(-7.218649577449758,-4.125235E-015,30.999999999999982));
#118=CARTESIAN_POINT('',(-7.218649577449758,-4.370156E-015,33.0));
#119=CARTESIAN_POINT('',(-7.218649577449758,-4.615077E-015,35.000000000000014));
#120=CARTESIAN_POINT('',(-5.218649577449741,-4.286122E-015,35.000000000000007));
#121=CARTESIAN_POINT('',(-5.218649577449735,-30.999999999999986,30.999999999999982));
#122=CARTESIAN_POINT('',(-7.218649577449753,-30.999999999999979,30.999999999999972));
#123=CARTESIAN_POINT('',(-7.218649577449753,-33.0,32.999999999999986));
#124=CARTESIAN_POINT('',(-7.218649577449753,-35.000000000000014,35.0));
#125=CARTESIAN_POINT('',(-5.218649577449735,-35.000000000000007,34.999999999999993));
#126=CARTESIAN_POINT('',(-5.218649577449735,-30.999999999999993,-3.796280E-015));
#127=CARTESIAN_POINT('',(-7.218649577449753,-30.999999999999982,-3.796280E-015));
#128=CARTESIAN_POINT('',(-7.218649577449753,-33.0,-4.041201E-015));
#129=CARTESIAN_POINT('',(-7.218649577449753,-35.000000000000014,-4.286122E-015));
#130=CARTESIAN_POINT('',(-5.218649577449735,-35.000000000000007,-4.286122E-015));
#131=CARTESIAN_POINT('',(-5.218649577449735,-30.999999999999982,-30.999999999999986));
#132=CARTESIAN_POINT('',(-7.218649577449753,-30.999999999999972,-30.999999999999979));
#133=CARTESIAN_POINT('',(-7.218649577449753,-32.999999999999986,-33.0));
#134=CARTESIAN_POINT('',(-7.218649577449753,-35.0,-35.000000000000014));
#135=CARTESIAN_POINT('',(-5.218649577449735,-34.999999999999993,-35.000000000000007));
#136=CARTESIAN_POINT('',(-5.218649577449741,3.796280E-015,-30.999999999999993));
#137=CARTESIAN_POINT('',(-7.218649577449758,3.467325E-015,-30.999999999999982));
#138=CARTESIAN_POINT('',(-7.218649577449758,3.712246E-015,-33.0));
#139=CARTESIAN_POINT('',(-7.218649577449758,3.957167E-015,-35.000000000000014));
#140=CARTESIAN_POINT('',(-5.218649577449741,4.286122E-015,-35.000000000000007));
#141=CARTESIAN_POINT('',(-5.218649577449746,30.999999999999986,-30.999999999999982));
#142=CARTESIAN_POINT('',(-7.218649577449764,30.999999999999979,-30.999999999999972));
#143=CARTESIAN_POINT('',(-7.218649577449764,33.0,-32.999999999999986));
#144=CARTESIAN_POINT('',(-7.218649577449764,35.000000000000014,-35.0));
#145=CARTESIAN_POINT('',(-5.218649577449746,35.000000000000007,-34.999999999999993));
#146=CARTESIAN_POINT('',(-5.218649577449746,30.999999999999993,3.796280E-015));
#147=CARTESIAN_POINT('',(-7.218649577449765,30.999999999999982,3.796280E-015));
#148=CARTESIAN_POINT('',(-7.218649577449764,33.0,4.041201E-015));
#149=CARTESIAN_POINT('',(-7.218649577449764,35.000000000000014,4.286122E-015));
#150=CARTESIAN_POINT('',(-5.218649577449746,35.000000000000007,4.286122E-015));
#151=CARTESIAN_POINT('',(-5.218649577449746,30.999999999999982,30.999999999999986));
#152=CARTESIAN_POINT('',(-7.218649577449764,30.999999999999972,30.999999999999979));
#153=CARTESIAN_POINT('',(-7.218649577449764,32.999999999999986,33.0));
#154=CARTESIAN_POINT('',(-7.218649577449764,35.0,35.000000000000014));
#155=CARTESIAN_POINT('',(-5.218649577449746,34.999999999999993,35.000000000000007));
#156=CARTESIAN_POINT('',(-5.218649577449741,-3.796280E-015,30.999999999999993));
#157=CARTESIAN_POINT('',(-7.218649577449758,-4.125235E-015,30.999999999999982));
#158=CARTESIAN_POINT('',(-7.218649577449758,-4.370156E-015,33.0));
#159=CARTESIAN_POINT('',(-7.218649577449758,-4.615077E-015,35.000000000000014));
#160=CARTESIAN_POINT('',(-5.218649577449741,-4.286122E-015,35.000000000000007));
#168=(BOUNDED_SURFACE()B_SPLINE_SURFACE(2,2,((#116,#121,#126,#131,#136,#141,#146,#151,#156),(#117,#122,#127,#132,#137,#142,#147,#152,#157),(#118,#123,#128,#133,#138,#143,#148,#153,#158),(#119,#124,#129,#134,#139,#144,#149,#154,#159),(#120,#125,#130,#135,#140,#145,#150,#155,#160)),.UNSPECIFIED.,.F.,.T.,.U.)B_SPLINE_SURFACE_WITH_KNOTS((3,2,3),(3,2,2,2,3),(-3.141592653589798,-1.570796326794897,5.322159E-015),(0.0,1.570796326794897,3.141592653589793,4.712388980384690,6.283185307179586),.UNSPECIFIED.)GEOMETRIC_REPRESENTATION_ITEM()RATIONAL_B_SPLINE_SURFACE(((1.0,0.707106781186548,1.0,0.707106781186548,1.0,0.707106781186548,1.0,0.707106781186548,1.0),(0.707106781186545,0.499999999999998,0.707106781186545,0.499999999999998,0.707106781186545,0.499999999999998,0.707106781186545,0.499999999999998,0.707106781186545),(1.0,0.707106781186548,1.0,0.707106781186548,1.0,0.707106781186548,1.0,0.707106781186548,1.0),(0.707106781186551,0.500000000000003,0.707106781186551,0.500000000000003,0.707106781186551,0.500000000000003,0.707106781186551,0.500000000000003,0.707106781186551),(1.0,0.707106781186548,1.0,0.707106781186548,1.0,0.707106781186548,1.0,0.707106781186548,1.0)))REPRESENTATION_ITEM('')SURFACE());
#169=CARTESIAN_POINT('',(-5.218649577449757,31.0,0.0));
#170=VERTEX_POINT('',#169);
#171=CARTESIAN_POINT('',(-5.218649577449751,-8.583504E-016,0.0));
#172=DIRECTION('',(1.0,0.0,0.0));
#173=DIRECTION('',(0.0,1.0,0.0));
#174=AXIS2_PLACEMENT_3D('',#171,#172,#173);
#175=CIRCLE('',#174,31.0);
#176=EDGE_CURVE('',#170,#170,#175,.T.);
#177=ORIENTED_EDGE('',*,*,#176,.F.);
#178=EDGE_LOOP('',(#177));
#179=FACE_OUTER_BOUND('',#178,.T.);
#180=ORIENTED_EDGE('',*,*,#108,.T.);
#181=EDGE_LOOP('',(#180));
#182=FACE_BOUND('',#181,.T.);
#183=ADVANCED_FACE('',(#179,#182),#168,.T.);
#184=CARTESIAN_POINT('',(-2.609324788724878,-4.291752E-016,0.0));
#185=DIRECTION('',(1.0,1.644775E-016,0.0));
#186=DIRECTION('',(0.0,1.0,0.0));
#187=AXIS2_PLACEMENT_3D('',#184,#185,#186);
#188=CYLINDRICAL_SURFACE('',#187,31.0);
#189=CARTESIAN_POINT('',(-8.881784E-015,31.0,0.0));
#190=VERTEX_POINT('',#189);
#191=CARTESIAN_POINT('',(-4.440892E-015,-7.395571E-031,0.0));
#192=DIRECTION('',(1.0,0.0,0.0));
#193=DIRECTION('',(0.0,1.0,0.0));
#194=AXIS2_PLACEMENT_3D('',#191,#192,#193);
#195=CIRCLE('',#194,31.0);
#196=EDGE_CURVE('',#190,#190,#195,.T.);
#197=ORIENTED_EDGE('',*,*,#196,.F.);
#198=EDGE_LOOP('',(#197));
#199=FACE_OUTER_BOUND('',#198,.T.);
#200=ORIENTED_EDGE('',*,*,#176,.T.);
#201=EDGE_LOOP('',(#200));
#202=FACE_BOUND('',#201,.T.);
#203=ADVANCED_FACE('',(#199,#202),#188,.T.);
#204=CARTESIAN_POINT('',(-4.440892E-015,15.500000000000000,0.0));
#205=DIRECTION('',(1.0,0.0,0.0));
#206=DIRECTION('',(0.0,0.0,-1.0));
#207=AXIS2_PLACEMENT_3D('',#204,#205,#206);
#208=PLANE('',#207);
#209=ORIENTED_EDGE('',*,*,#196,.T.);
#210=EDGE_LOOP('',(#209));
#211=FACE_OUTER_BOUND('',#210,.T.);
#212=ADVANCED_FACE('',(#211),#208,.T.);
#213=CARTESIAN_POINT('',(-12.875000000000000,12.334086487850422,0.0));
#214=DIRECTION('',(-1.0,0.0,0.0));
#215=DIRECTION('',(0.0,0.0,1.0));
#216=AXIS2_PLACEMENT_3D('',#213,#214,#215);
#217=PLANE('',#216);
#218=CARTESIAN_POINT('',(-12.875000000000005,24.668172975700845,0.0));
#219=VERTEX_POINT('',#218);
#220=CARTESIAN_POINT('',(-12.875000000000000,-2.117648E-015,0.0));
#221=DIRECTION('',(1.0,0.0,0.0));
#222=DIRECTION('',(0.0,1.0,0.0));
#223=AXIS2_PLACEMENT_3D('',#220,#221,#222);
#224=CIRCLE('',#223,24.668172975700845);
#225=EDGE_CURVE('',#219,#219,#224,.T.);
#226=ORIENTED_EDGE('',*,*,#225,.F.);
#227=EDGE_LOOP('',(#226));
#228=FACE_OUTER_BOUND('',#227,.T.);
#229=ADVANCED_FACE('',(#228),#217,.T.);
#230=CARTESIAN_POINT('',(-11.875000000000004,0.0,0.0));
#231=DIRECTION('',(1.0,1.644775E-016,0.0));
#232=DIRECTION('',(0.0,0.0,-1.0));
#233=AXIS2_PLACEMENT_3D('',#230,#231,#232);
#234=TOROIDAL_SURFACE('',#233,24.668172975700845,1.000000000000019);
#235=CARTESIAN_POINT('',(-12.560507246376842,25.396238779845529,0.0));
#236=VERTEX_POINT('',#235);
#237=CARTESIAN_POINT('',(-12.560507246376837,-2.065921E-015,0.0));
#238=DIRECTION('',(1.0,0.0,0.0));
#239=DIRECTION('',(0.0,1.0,0.0));
#240=AXIS2_PLACEMENT_3D('',#237,#238,#239);
#241=CIRCLE('',#240,25.396238779845529);
#242=EDGE_CURVE('',#236,#236,#241,.T.);
#243=ORIENTED_EDGE('',*,*,#242,.F.);
#244=EDGE_LOOP('',(#243));
#245=FACE_OUTER_BOUND('',#244,.T.);
#246=ORIENTED_EDGE('',*,*,#225,.T.);
#247=EDGE_LOOP('',(#246));
#248=FACE_BOUND('',#247,.T.);
#249=ADVANCED_FACE('',(#245,#248),#234,.T.);
#250=CARTESIAN_POINT('',(-12.560507246376845,-3.270682E-015,28.963761220154474));
#251=CARTESIAN_POINT('',(-11.790000000000099,-3.055110E-015,28.238293415224909));
#252=CARTESIAN_POINT('',(-11.790000000000099,-2.925510E-015,27.180000000000000));
#253=CARTESIAN_POINT('',(-11.790000000000099,-2.795911E-015,26.121706584775090));
#254=CARTESIAN_POINT('',(-12.560507246376845,-2.833801E-015,25.396238779845525));
#255=CARTESIAN_POINT('',(-12.560507246376842,-28.963761220154471,28.963761220154463));
#256=CARTESIAN_POINT('',(-11.790000000000093,-28.238293415224906,28.238293415224899));
#257=CARTESIAN_POINT('',(-11.790000000000093,-27.179999999999996,27.179999999999989));
#258=CARTESIAN_POINT('',(-11.790000000000095,-26.121706584775087,26.121706584775083));
#259=CARTESIAN_POINT('',(-12.560507246376842,-25.396238779845522,25.396238779845515));
#260=CARTESIAN_POINT('',(-12.560507246376840,-28.963761220154474,-3.546921E-015));
#261=CARTESIAN_POINT('',(-11.790000000000093,-28.238293415224909,-3.458079E-015));
#262=CARTESIAN_POINT('',(-11.790000000000093,-27.180000000000000,-3.328480E-015));
#263=CARTESIAN_POINT('',(-11.790000000000095,-26.121706584775090,-3.198881E-015));
#264=CARTESIAN_POINT('',(-12.560507246376842,-25.396238779845525,-3.110040E-015));
#265=CARTESIAN_POINT('',(-12.560507246376842,-28.963761220154463,-28.963761220154471));
#266=CARTESIAN_POINT('',(-11.790000000000093,-28.238293415224899,-28.238293415224906));
#267=CARTESIAN_POINT('',(-11.790000000000093,-27.179999999999989,-27.179999999999996));
#268=CARTESIAN_POINT('',(-11.790000000000095,-26.121706584775083,-26.121706584775087));
#269=CARTESIAN_POINT('',(-12.560507246376842,-25.396238779845515,-25.396238779845522));
#270=CARTESIAN_POINT('',(-12.560507246376845,3.823159E-015,-28.963761220154474));
#271=CARTESIAN_POINT('',(-11.790000000000099,3.861049E-015,-28.238293415224909));
#272=CARTESIAN_POINT('',(-11.790000000000099,3.731450E-015,-27.180000000000000));
#273=CARTESIAN_POINT('',(-11.790000000000099,3.601851E-015,-26.121706584775090));
#274=CARTESIAN_POINT('',(-12.560507246376845,3.386278E-015,-25.396238779845525));
#275=CARTESIAN_POINT('',(-12.560507246376851,28.963761220154471,-28.963761220154463));
#276=CARTESIAN_POINT('',(-11.790000000000104,28.238293415224906,-28.238293415224899));
#277=CARTESIAN_POINT('',(-11.790000000000102,27.179999999999996,-27.179999999999989));
#278=CARTESIAN_POINT('',(-11.790000000000102,26.121706584775087,-26.121706584775083));
#279=CARTESIAN_POINT('',(-12.560507246376849,25.396238779845522,-25.396238779845515));
#280=CARTESIAN_POINT('',(-12.560507246376851,28.963761220154474,3.546921E-015));
#281=CARTESIAN_POINT('',(-11.790000000000104,28.238293415224909,3.458079E-015));
#282=CARTESIAN_POINT('',(-11.790000000000104,27.180000000000000,3.328480E-015));
#283=CARTESIAN_POINT('',(-11.790000000000102,26.121706584775090,3.198881E-015));
#284=CARTESIAN_POINT('',(-12.560507246376849,25.396238779845525,3.110040E-015));
#285=CARTESIAN_POINT('',(-12.560507246376851,28.963761220154463,28.963761220154471));
#286=CARTESIAN_POINT('',(-11.790000000000104,28.238293415224899,28.238293415224906));
#287=CARTESIAN_POINT('',(-11.790000000000102,27.179999999999989,27.179999999999996));
#288=CARTESIAN_POINT('',(-11.790000000000102,26.121706584775083,26.121706584775087));
#289=CARTESIAN_POINT('',(-12.560507246376849,25.396238779845515,25.396238779845522));
#290=CARTESIAN_POINT('',(-12.560507246376845,-3.270682E-015,28.963761220154474));
#291=CARTESIAN_POINT('',(-11.790000000000099,-3.055110E-015,28.238293415224909));
#292=CARTESIAN_POINT('',(-11.790000000000099,-2.925510E-015,27.180000000000000));
#293=CARTESIAN_POINT('',(-11.790000000000099,-2.795911E-015,26.121706584775090));
#294=CARTESIAN_POINT('',(-12.560507246376845,-2.833801E-015,25.396238779845525));
#302=(BOUNDED_SURFACE()B_SPLINE_SURFACE(2,2,((#250,#255,#260,#265,#270,#275,#280,#285,#290),(#251,#256,#261,#266,#271,#276,#281,#286,#291),(#252,#257,#262,#267,#272,#277,#282,#287,#292),(#253,#258,#263,#268,#273,#278,#283,#288,#293),(#254,#259,#264,#269,#274,#279,#284,#289,#294)),.UNSPECIFIED.,.F.,.T.,.U.)B_SPLINE_SURFACE_WITH_KNOTS((3,2,3),(3,2,2,2,3),(0.755300174568952,1.570796326794897,2.386292479020841),(0.0,1.570796326794897,3.141592653589793,4.712388980384690,6.283185307179586),.UNSPECIFIED.)GEOMETRIC_REPRESENTATION_ITEM()RATIONAL_B_SPLINE_SURFACE(((1.0,0.707106781186548,1.0,0.707106781186548,1.0,0.707106781186548,1.0,0.707106781186548,1.0),(0.918016134492431,0.649135433938260,0.918016134492431,0.649135433938260,0.918016134492431,0.649135433938260,0.918016134492431,0.649135433938260,0.918016134492431),(1.0,0.707106781186548,1.0,0.707106781186548,1.0,0.707106781186548,1.0,0.707106781186548,1.0),(0.918016134492431,0.649135433938260,0.918016134492431,0.649135433938260,0.918016134492431,0.649135433938260,0.918016134492431,0.649135433938260,0.918016134492431),(1.0,0.707106781186548,1.0,0.707106781186548,1.0,0.707106781186548,1.0,0.707106781186548,1.0)))REPRESENTATION_ITEM('')SURFACE());
#303=CARTESIAN_POINT('',(-11.939130434782639,28.021723971297021,0.0));
#304=VERTEX_POINT('',#303);
#305=CARTESIAN_POINT('',(-11.939130434782633,-1.963718E-015,0.0));
#306=DIRECTION('',(1.0,0.0,0.0));
#307=DIRECTION('',(0.0,1.0,0.0));
#308=AXIS2_PLACEMENT_3D('',#305,#306,#307);
#309=CIRCLE('',#308,28.021723971297021);
#310=EDGE_CURVE('',#304,#304,#309,.T.);
#311=ORIENTED_EDGE('',*,*,#310,.F.);
#312=EDGE_LOOP('',(#311));
#313=FACE_OUTER_BOUND('',#312,.T.);
#314=ORIENTED_EDGE('',*,*,#242,.T.);
#315=EDGE_LOOP('',(#314));
#316=FACE_BOUND('',#315,.T.);
#317=ADVANCED_FACE('',(#313,#316),#302,.T.);
#318=CARTESIAN_POINT('',(-11.0,0.0,0.0));
#319=DIRECTION('',(1.0,1.644775E-016,0.0));
#320=DIRECTION('',(0.0,0.0,-1.0));
#321=AXIS2_PLACEMENT_3D('',#318,#319,#320);
#322=TOROIDAL_SURFACE('',#321,28.365284775908052,1.0);
#323=CARTESIAN_POINT('',(-12.000000000000011,28.365284775908044,0.0));
#324=VERTEX_POINT('',#323);
#325=CARTESIAN_POINT('',(-12.000000000000007,-1.973730E-015,0.0));
#326=DIRECTION('',(1.0,0.0,0.0));
#327=DIRECTION('',(0.0,1.0,0.0));
#328=AXIS2_PLACEMENT_3D('',#325,#326,#327);
#329=CIRCLE('',#328,28.365284775908044);
#330=EDGE_CURVE('',#324,#324,#329,.T.);
#331=ORIENTED_EDGE('',*,*,#330,.F.);
#332=EDGE_LOOP('',(#331));
#333=FACE_OUTER_BOUND('',#332,.T.);
#334=ORIENTED_EDGE('',*,*,#310,.T.);
#335=EDGE_LOOP('',(#334));
#336=FACE_BOUND('',#335,.T.);
#337=ADVANCED_FACE('',(#333,#336),#322,.T.);
#338=CARTESIAN_POINT('',(-12.000000000000011,29.857642387954023,0.0));
#339=DIRECTION('',(-1.0,0.0,0.0));
#340=DIRECTION('',(0.0,0.0,1.0));
#341=AXIS2_PLACEMENT_3D('',#338,#339,#340);
#342=PLANE('',#341);
#343=CARTESIAN_POINT('',(-12.000000000000011,31.349999999999998,0.0));
#344=VERTEX_POINT('',#343);
#345=CARTESIAN_POINT('',(-12.000000000000007,-1.973730E-015,0.0));
#346=DIRECTION('',(1.0,0.0,0.0));
#347=DIRECTION('',(0.0,1.0,0.0));
#348=AXIS2_PLACEMENT_3D('',#345,#346,#347);
#349=CIRCLE('',#348,31.349999999999998);
#350=EDGE_CURVE('',#344,#344,#349,.T.);
#351=ORIENTED_EDGE('',*,*,#350,.F.);
#352=EDGE_LOOP('',(#351));
#353=FACE_OUTER_BOUND('',#352,.T.);
#354=ORIENTED_EDGE('',*,*,#330,.T.);
#355=EDGE_LOOP('',(#354));
#356=FACE_BOUND('',#355,.T.);
#357=ADVANCED_FACE('',(#353,#356),#342,.T.);
#358=CARTESIAN_POINT('',(-12.400000000000016,-3.888125E-015,31.750000000000000));
#359=CARTESIAN_POINT('',(-12.000000000000004,-3.822334E-015,31.750000000000014));
#360=CARTESIAN_POINT('',(-12.000000000000004,-3.773350E-015,31.349999999999998));
#361=CARTESIAN_POINT('',(-12.000000000000004,-3.724366E-015,30.949999999999985));
#362=CARTESIAN_POINT('',(-12.400000000000016,-3.790157E-015,30.949999999999996));
#363=CARTESIAN_POINT('',(-12.400000000000009,-31.749999999999996,31.749999999999989));
#364=CARTESIAN_POINT('',(-11.999999999999998,-31.750000000000007,31.750000000000000));
#365=CARTESIAN_POINT('',(-11.999999999999998,-31.349999999999994,31.349999999999987));
#366=CARTESIAN_POINT('',(-11.999999999999998,-30.949999999999982,30.949999999999974));
#367=CARTESIAN_POINT('',(-12.400000000000009,-30.949999999999996,30.949999999999985));
#368=CARTESIAN_POINT('',(-12.400000000000011,-31.750000000000000,-3.888125E-015));
#369=CARTESIAN_POINT('',(-11.999999999999998,-31.750000000000014,-3.888125E-015));
#370=CARTESIAN_POINT('',(-11.999999999999998,-31.349999999999998,-3.839141E-015));
#371=CARTESIAN_POINT('',(-11.999999999999998,-30.949999999999985,-3.790157E-015));
#372=CARTESIAN_POINT('',(-12.400000000000011,-30.949999999999996,-3.790157E-015));
#373=CARTESIAN_POINT('',(-12.400000000000009,-31.749999999999989,-31.749999999999996));
#374=CARTESIAN_POINT('',(-11.999999999999998,-31.750000000000000,-31.750000000000007));
#375=CARTESIAN_POINT('',(-11.999999999999998,-31.349999999999987,-31.349999999999994));
#376=CARTESIAN_POINT('',(-11.999999999999998,-30.949999999999974,-30.949999999999982));
#377=CARTESIAN_POINT('',(-12.400000000000009,-30.949999999999985,-30.949999999999996));
#378=CARTESIAN_POINT('',(-12.400000000000016,3.888125E-015,-31.750000000000000));
#379=CARTESIAN_POINT('',(-12.000000000000004,3.953916E-015,-31.750000000000014));
#380=CARTESIAN_POINT('',(-12.000000000000004,3.904932E-015,-31.349999999999998));
#381=CARTESIAN_POINT('',(-12.000000000000004,3.855948E-015,-30.949999999999985));
#382=CARTESIAN_POINT('',(-12.400000000000016,3.790157E-015,-30.949999999999996));
#383=CARTESIAN_POINT('',(-12.400000000000022,31.749999999999996,-31.749999999999989));
#384=CARTESIAN_POINT('',(-12.000000000000009,31.750000000000007,-31.750000000000000));
#385=CARTESIAN_POINT('',(-12.000000000000009,31.349999999999994,-31.349999999999987));
#386=CARTESIAN_POINT('',(-12.000000000000009,30.949999999999982,-30.949999999999974));
#387=CARTESIAN_POINT('',(-12.400000000000022,30.949999999999996,-30.949999999999985));
#388=CARTESIAN_POINT('',(-12.400000000000022,31.750000000000000,3.888125E-015));
#389=CARTESIAN_POINT('',(-12.000000000000009,31.750000000000014,3.888125E-015));
#390=CARTESIAN_POINT('',(-12.000000000000009,31.349999999999998,3.839141E-015));
#391=CARTESIAN_POINT('',(-12.000000000000009,30.949999999999985,3.790157E-015));
#392=CARTESIAN_POINT('',(-12.400000000000022,30.949999999999996,3.790157E-015));
#393=CARTESIAN_POINT('',(-12.400000000000022,31.749999999999989,31.749999999999996));
#394=CARTESIAN_POINT('',(-12.000000000000009,31.750000000000000,31.750000000000007));
#395=CARTESIAN_POINT('',(-12.000000000000009,31.349999999999987,31.349999999999994));
#396=CARTESIAN_POINT('',(-12.000000000000009,30.949999999999974,30.949999999999982));
#397=CARTESIAN_POINT('',(-12.400000000000022,30.949999999999985,30.949999999999996));
#398=CARTESIAN_POINT('',(-12.400000000000016,-3.888125E-015,31.750000000000000));
#399=CARTESIAN_POINT('',(-12.000000000000004,-3.822334E-015,31.750000000000014));
#400=CARTESIAN_POINT('',(-12.000000000000004,-3.773350E-015,31.349999999999998));
#401=CARTESIAN_POINT('',(-12.000000000000004,-3.724366E-015,30.949999999999985));
#402=CARTESIAN_POINT('',(-12.400000000000016,-3.790157E-015,30.949999999999996));
#410=(BOUNDED_SURFACE()B_SPLINE_SURFACE(2,2,((#358,#363,#368,#373,#378,#383,#388,#393,#398),(#359,#364,#369,#374,#379,#384,#389,#394,#399),(#360,#365,#370,#375,#380,#385,#390,#395,#400),(#361,#366,#371,#376,#381,#386,#391,#396,#401),(#362,#367,#372,#377,#382,#387,#392,#397,#402)),.UNSPECIFIED.,.F.,.T.,.U.)B_SPLINE_SURFACE_WITH_KNOTS((3,2,3),(3,2,2,2,3),(-2.637808E-014,1.570796326794897,3.141592653589819),(0.0,1.570796326794897,3.141592653589793,4.712388980384690,6.283185307179586),.UNSPECIFIED.)GEOMETRIC_REPRESENTATION_ITEM()RATIONAL_B_SPLINE_SURFACE(((1.0,0.707106781186548,1.0,0.707106781186548,1.0,0.707106781186548,1.0,0.707106781186548,1.0),(0.707106781186547,0.500000000000000,0.707106781186547,0.500000000000000,0.707106781186547,0.500000000000000,0.707106781186547,0.500000000000000,0.707106781186547),(1.0,0.707106781186548,1.0,0.707106781186548,1.0,0.707106781186548,1.0,0.707106781186548,1.0),(0.707106781186547,0.500000000000000,0.707106781186547,0.500000000000000,0.707106781186547,0.500000000000000,0.707106781186547,0.500000000000000,0.707106781186547),(1.0,0.707106781186548,1.0,0.707106781186548,1.0,0.707106781186548,1.0,0.707106781186548,1.0)))REPRESENTATION_ITEM('')SURFACE());
#411=CARTESIAN_POINT('',(-12.400000000000011,31.750000000000004,0.0));
#412=VERTEX_POINT('',#411);
#413=CARTESIAN_POINT('',(-12.400000000000006,-2.039521E-015,0.0));
#414=DIRECTION('',(1.0,0.0,0.0));
#415=DIRECTION('',(0.0,1.0,0.0));
#416=AXIS2_PLACEMENT_3D('',#413,#414,#415);
#417=CIRCLE('',#416,31.750000000000004);
#418=EDGE_CURVE('',#412,#412,#417,.T.);
#419=ORIENTED_EDGE('',*,*,#418,.F.);
#420=EDGE_LOOP('',(#419));
#421=FACE_OUTER_BOUND('',#420,.T.);
#422=ORIENTED_EDGE('',*,*,#350,.T.);
#423=EDGE_LOOP('',(#422));
#424=FACE_BOUND('',#423,.T.);
#425=ADVANCED_FACE('',(#421,#424),#410,.T.);
#426=CARTESIAN_POINT('',(-12.800000000000002,-2.105312E-015,0.0));
#427=DIRECTION('',(1.0,1.644775E-016,0.0));
#428=DIRECTION('',(0.0,1.0,0.0));
#429=AXIS2_PLACEMENT_3D('',#426,#427,#428);
#430=CYLINDRICAL_SURFACE('',#429,31.750000000000004);
#431=CARTESIAN_POINT('',(-13.200000000000003,31.750000000000004,0.0));
#432=VERTEX_POINT('',#431);
#433=CARTESIAN_POINT('',(-13.199999999999999,-2.171103E-015,0.0));
#434=DIRECTION('',(1.0,0.0,0.0));
#435=DIRECTION('',(0.0,1.0,0.0));
#436=AXIS2_PLACEMENT_3D('',#433,#434,#435);
#437=CIRCLE('',#436,31.750000000000004);
#438=EDGE_CURVE('',#432,#432,#437,.T.);
#439=ORIENTED_EDGE('',*,*,#438,.F.);
#440=EDGE_LOOP('',(#439));
#441=FACE_OUTER_BOUND('',#440,.T.);
#442=ORIENTED_EDGE('',*,*,#418,.T.);
#443=EDGE_LOOP('',(#442));
#444=FACE_BOUND('',#443,.T.);
#445=ADVANCED_FACE('',(#441,#444),#430,.F.);
#446=CARTESIAN_POINT('',(-13.350000000000000,-2.195774E-015,0.0));
#447=DIRECTION('',(-1.0,-1.644775E-016,0.0));
#448=DIRECTION('',(0.0,1.0,0.0));
#449=AXIS2_PLACEMENT_3D('',#446,#447,#448);
#450=CONICAL_SURFACE('',#449,31.899999999999999,44.999999999999162);
#451=CARTESIAN_POINT('',(-13.500000000000005,32.049999999999997,0.0));
#452=VERTEX_POINT('',#451);
#453=CARTESIAN_POINT('',(-13.500000000000000,-2.220446E-015,0.0));
#454=DIRECTION('',(1.0,0.0,0.0));
#455=DIRECTION('',(0.0,1.0,0.0));
#456=AXIS2_PLACEMENT_3D('',#453,#454,#455);
#457=CIRCLE('',#456,32.049999999999997);
#458=EDGE_CURVE('',#452,#452,#457,.T.);
#459=ORIENTED_EDGE('',*,*,#458,.F.);
#460=EDGE_LOOP('',(#459));
#461=FACE_OUTER_BOUND('',#460,.T.);
#462=ORIENTED_EDGE('',*,*,#438,.T.);
#463=EDGE_LOOP('',(#462));
#464=FACE_BOUND('',#463,.T.);
#465=ADVANCED_FACE('',(#461,#464),#450,.F.);
#466=CARTESIAN_POINT('',(-13.500000000000011,35.399999999999999,0.0));
#467=DIRECTION('',(-1.0,0.0,0.0));
#468=DIRECTION('',(0.0,0.0,1.0));
#469=AXIS2_PLACEMENT_3D('',#466,#467,#468);
#470=PLANE('',#469);
#471=CARTESIAN_POINT('',(-13.500000000000014,38.750000000000000,0.0));
#472=VERTEX_POINT('',#471);
#473=CARTESIAN_POINT('',(-13.500000000000007,-2.220446E-015,0.0));
#474=DIRECTION('',(1.0,0.0,0.0));
#475=DIRECTION('',(0.0,1.0,0.0));
#476=AXIS2_PLACEMENT_3D('',#473,#474,#475);
#477=CIRCLE('',#476,38.750000000000007);
#478=EDGE_CURVE('',#472,#472,#477,.T.);
#479=ORIENTED_EDGE('',*,*,#478,.F.);
#480=EDGE_LOOP('',(#479));
#481=FACE_OUTER_BOUND('',#480,.T.);
#482=ORIENTED_EDGE('',*,*,#458,.T.);
#483=EDGE_LOOP('',(#482));
#484=FACE_BOUND('',#483,.T.);
#485=ADVANCED_FACE('',(#481,#484),#470,.T.);
#486=CARTESIAN_POINT('',(-11.750000000000009,-1.932610E-015,0.0));
#487=DIRECTION('',(1.0,1.644775E-016,0.0));
#488=DIRECTION('',(0.0,1.0,0.0));
#489=AXIS2_PLACEMENT_3D('',#486,#487,#488);
#490=CYLINDRICAL_SURFACE('',#489,38.750000000000000);
#491=ORIENTED_EDGE('',*,*,#91,.F.);
#492=EDGE_LOOP('',(#491));
#493=FACE_OUTER_BOUND('',#492,.T.);
#494=ORIENTED_EDGE('',*,*,#478,.T.);
#495=EDGE_LOOP('',(#494));
#496=FACE_BOUND('',#495,.T.);
#497=ADVANCED_FACE('',(#493,#496),#490,.T.);
#498=CLOSED_SHELL('',(#95,#115,#183,#203,#212,#229,#249,#317,#337,#357,#425,#445,#465,#485,#497));
#499=MANIFOLD_SOLID_BREP('',#498);
#500=COLOUR_RGB('Metall - Stahl',0.639216005802155,0.639216005802155,0.686275005340576);
#501=FILL_AREA_STYLE_COLOUR('Metall - Stahl',#500);
#502=FILL_AREA_STYLE('Metall - Stahl',(#501));
#503=SURFACE_STYLE_FILL_AREA(#502);
#504=SURFACE_SIDE_STYLE('Metall - Stahl',(#503));
#505=SURFACE_STYLE_USAGE(.BOTH.,#504);
#506=PRESENTATION_STYLE_ASSIGNMENT((#505));
#507=STYLED_ITEM('',(#506),#499);
#508=MECHANICAL_DESIGN_GEOMETRIC_PRESENTATION_REPRESENTATION('',(#507),#36);
#509=ADVANCED_BREP_SHAPE_REPRESENTATION('ABSR',(#499),#36);
#510=SHAPE_REPRESENTATION_RELATIONSHIP('SRR','None',#509,#41);
ENDSEC;
END-ISO-10303-21;
