ISO-10303-21;
HEADER;
/* Generated by software containing ST-Developer
 * from STEP Tools, Inc. (www.steptools.com) 
 */

FILE_DESCRIPTION(
/* description */ (''),
/* implementation_level */ '2;1');

FILE_NAME(
/* name */ 'Z:\\Geberit\\Export\\NewStep\\31938.stp',
/* time_stamp */ '2014-04-01T20:18:13+02:00',
/* author */ ('bruh'),
/* organization */ (''),
/* preprocessor_version */ 'ST-DEVELOPER v15.2',
/* originating_system */ 'Autodesk Inventor 2014',
/* authorisation */ '');

FILE_SCHEMA (('AUTOMOTIVE_DESIGN { 1 0 10303 214 3 1 1 }'));
ENDSEC;

DATA;
#10=SHAPE_REPRESENTATION_RELATIONSHIP('SRR','None',#397,#11);
#11=ADVANCED_BREP_SHAPE_REPRESENTATION($,(#222),#388);
#12=STYLED_ITEM($,(#405),#222);
#13=CYLINDRICAL_SURFACE($,#232,16.);
#14=CYLINDRICAL_SURFACE($,#239,20.955);
#15=CYLINDRICAL_SURFACE($,#244,17.5);
#16=FACE_BOUND($,#57,.T.);
#17=FACE_BOUND($,#60,.T.);
#18=FACE_BOUND($,#62,.T.);
#19=FACE_BOUND($,#64,.T.);
#20=FACE_BOUND($,#66,.T.);
#21=FACE_BOUND($,#68,.T.);
#22=FACE_BOUND($,#69,.T.);
#23=FACE_BOUND($,#70,.T.);
#24=FACE_BOUND($,#72,.T.);
#25=FACE_BOUND($,#73,.T.);
#26=FACE_BOUND($,#74,.T.);
#27=CIRCLE($,#230,17.6);
#28=CIRCLE($,#233,16.);
#29=CIRCLE($,#234,16.);
#30=CIRCLE($,#236,19.455);
#31=CIRCLE($,#238,20.955);
#32=CIRCLE($,#240,20.955);
#33=CIRCLE($,#243,17.5);
#34=CIRCLE($,#245,17.5);
#35=CONICAL_SURFACE($,#229,22.0790561913614,75.0000000000001);
#36=CONICAL_SURFACE($,#237,20.205,44.9999999999995);
#37=CONICAL_SURFACE($,#241,23.7565561913614,75.);
#38=FACE_OUTER_BOUND($,#51,.T.);
#39=FACE_OUTER_BOUND($,#52,.T.);
#40=FACE_OUTER_BOUND($,#53,.T.);
#41=FACE_OUTER_BOUND($,#54,.T.);
#42=FACE_OUTER_BOUND($,#55,.T.);
#43=FACE_OUTER_BOUND($,#56,.T.);
#44=FACE_OUTER_BOUND($,#58,.T.);
#45=FACE_OUTER_BOUND($,#59,.T.);
#46=FACE_OUTER_BOUND($,#61,.T.);
#47=FACE_OUTER_BOUND($,#63,.T.);
#48=FACE_OUTER_BOUND($,#65,.T.);
#49=FACE_OUTER_BOUND($,#67,.T.);
#50=FACE_OUTER_BOUND($,#71,.T.);
#51=EDGE_LOOP($,(#145,#146,#147,#148));
#52=EDGE_LOOP($,(#149,#150,#151,#152));
#53=EDGE_LOOP($,(#153,#154,#155,#156));
#54=EDGE_LOOP($,(#157,#158,#159,#160));
#55=EDGE_LOOP($,(#161,#162,#163,#164));
#56=EDGE_LOOP($,(#165));
#57=EDGE_LOOP($,(#166,#167,#168,#169,#170,#171));
#58=EDGE_LOOP($,(#172,#173,#174,#175));
#59=EDGE_LOOP($,(#176));
#60=EDGE_LOOP($,(#177));
#61=EDGE_LOOP($,(#178));
#62=EDGE_LOOP($,(#179));
#63=EDGE_LOOP($,(#180));
#64=EDGE_LOOP($,(#181));
#65=EDGE_LOOP($,(#182));
#66=EDGE_LOOP($,(#183));
#67=EDGE_LOOP($,(#184,#185,#186,#187,#188,#189));
#68=EDGE_LOOP($,(#190));
#69=EDGE_LOOP($,(#191));
#70=EDGE_LOOP($,(#192));
#71=EDGE_LOOP($,(#193));
#72=EDGE_LOOP($,(#194));
#73=EDGE_LOOP($,(#195));
#74=EDGE_LOOP($,(#196));
#75=LINE($,#309,#81);
#76=LINE($,#314,#82);
#77=LINE($,#321,#83);
#78=LINE($,#331,#84);
#79=LINE($,#341,#85);
#80=LINE($,#351,#86);
#81=VECTOR($,#251,8.99833158329082);
#82=VECTOR($,#252,8.99833158329082);
#83=VECTOR($,#255,8.99833158329082);
#84=VECTOR($,#258,8.99833158329082);
#85=VECTOR($,#261,8.99833158329082);
#86=VECTOR($,#264,8.99833158329082);
#87=(
BOUNDED_CURVE()
B_SPLINE_CURVE(2,(#305,#306,#307),.UNSPECIFIED.,.F.,.F.)
B_SPLINE_CURVE_WITH_KNOTS((3,3),(0.,2.66264749595728),.UNSPECIFIED.)
CURVE()
GEOMETRIC_REPRESENTATION_ITEM()
RATIONAL_B_SPLINE_CURVE((1.,1.15470053837926,1.))
REPRESENTATION_ITEM($)
);
#88=(
BOUNDED_CURVE()
B_SPLINE_CURVE(2,(#311,#312,#313),.UNSPECIFIED.,.F.,.F.)
B_SPLINE_CURVE_WITH_KNOTS((3,3),(0.,2.66264749595731),.UNSPECIFIED.)
CURVE()
GEOMETRIC_REPRESENTATION_ITEM()
RATIONAL_B_SPLINE_CURVE((1.,1.15470053837925,1.))
REPRESENTATION_ITEM($)
);
#89=(
BOUNDED_CURVE()
B_SPLINE_CURVE(2,(#317,#318,#319),.UNSPECIFIED.,.F.,.F.)
B_SPLINE_CURVE_WITH_KNOTS((3,3),(0.,2.66264749595729),.UNSPECIFIED.)
CURVE()
GEOMETRIC_REPRESENTATION_ITEM()
RATIONAL_B_SPLINE_CURVE((1.,1.15470053837926,1.))
REPRESENTATION_ITEM($)
);
#90=(
BOUNDED_CURVE()
B_SPLINE_CURVE(2,(#322,#323,#324),.UNSPECIFIED.,.F.,.F.)
B_SPLINE_CURVE_WITH_KNOTS((3,3),(0.,2.66264749595728),.UNSPECIFIED.)
CURVE()
GEOMETRIC_REPRESENTATION_ITEM()
RATIONAL_B_SPLINE_CURVE((1.,1.15470053837925,1.))
REPRESENTATION_ITEM($)
);
#91=(
BOUNDED_CURVE()
B_SPLINE_CURVE(2,(#327,#328,#329),.UNSPECIFIED.,.F.,.F.)
B_SPLINE_CURVE_WITH_KNOTS((3,3),(0.,2.66264749595729),.UNSPECIFIED.)
CURVE()
GEOMETRIC_REPRESENTATION_ITEM()
RATIONAL_B_SPLINE_CURVE((1.,1.15470053837926,1.))
REPRESENTATION_ITEM($)
);
#92=(
BOUNDED_CURVE()
B_SPLINE_CURVE(2,(#332,#333,#334),.UNSPECIFIED.,.F.,.F.)
B_SPLINE_CURVE_WITH_KNOTS((3,3),(0.,2.66264749595728),.UNSPECIFIED.)
CURVE()
GEOMETRIC_REPRESENTATION_ITEM()
RATIONAL_B_SPLINE_CURVE((1.,1.15470053837925,1.))
REPRESENTATION_ITEM($)
);
#93=(
BOUNDED_CURVE()
B_SPLINE_CURVE(2,(#337,#338,#339),.UNSPECIFIED.,.F.,.F.)
B_SPLINE_CURVE_WITH_KNOTS((3,3),(0.,2.66264749595729),.UNSPECIFIED.)
CURVE()
GEOMETRIC_REPRESENTATION_ITEM()
RATIONAL_B_SPLINE_CURVE((1.,1.15470053837926,1.))
REPRESENTATION_ITEM($)
);
#94=(
BOUNDED_CURVE()
B_SPLINE_CURVE(2,(#342,#343,#344),.UNSPECIFIED.,.F.,.F.)
B_SPLINE_CURVE_WITH_KNOTS((3,3),(0.,2.66264749595729),.UNSPECIFIED.)
CURVE()
GEOMETRIC_REPRESENTATION_ITEM()
RATIONAL_B_SPLINE_CURVE((1.,1.15470053837925,1.))
REPRESENTATION_ITEM($)
);
#95=(
BOUNDED_CURVE()
B_SPLINE_CURVE(2,(#347,#348,#349),.UNSPECIFIED.,.F.,.F.)
B_SPLINE_CURVE_WITH_KNOTS((3,3),(0.,2.66264749595727),.UNSPECIFIED.)
CURVE()
GEOMETRIC_REPRESENTATION_ITEM()
RATIONAL_B_SPLINE_CURVE((1.,1.15470053837926,1.))
REPRESENTATION_ITEM($)
);
#96=(
BOUNDED_CURVE()
B_SPLINE_CURVE(2,(#352,#353,#354),.UNSPECIFIED.,.F.,.F.)
B_SPLINE_CURVE_WITH_KNOTS((3,3),(0.,2.66264749595731),.UNSPECIFIED.)
CURVE()
GEOMETRIC_REPRESENTATION_ITEM()
RATIONAL_B_SPLINE_CURVE((1.,1.15470053837925,1.))
REPRESENTATION_ITEM($)
);
#97=(
BOUNDED_CURVE()
B_SPLINE_CURVE(2,(#358,#359,#360),.UNSPECIFIED.,.F.,.F.)
B_SPLINE_CURVE_WITH_KNOTS((3,3),(0.,2.66264749595731),.UNSPECIFIED.)
CURVE()
GEOMETRIC_REPRESENTATION_ITEM()
RATIONAL_B_SPLINE_CURVE((1.,1.15470053837925,1.))
REPRESENTATION_ITEM($)
);
#98=(
BOUNDED_CURVE()
B_SPLINE_CURVE(2,(#362,#363,#364),.UNSPECIFIED.,.F.,.F.)
B_SPLINE_CURVE_WITH_KNOTS((3,3),(0.,2.66264749595728),.UNSPECIFIED.)
CURVE()
GEOMETRIC_REPRESENTATION_ITEM()
RATIONAL_B_SPLINE_CURVE((1.,1.15470053837926,1.))
REPRESENTATION_ITEM($)
);
#99=VERTEX_POINT($,#303);
#100=VERTEX_POINT($,#304);
#101=VERTEX_POINT($,#308);
#102=VERTEX_POINT($,#310);
#103=VERTEX_POINT($,#316);
#104=VERTEX_POINT($,#320);
#105=VERTEX_POINT($,#326);
#106=VERTEX_POINT($,#330);
#107=VERTEX_POINT($,#336);
#108=VERTEX_POINT($,#340);
#109=VERTEX_POINT($,#346);
#110=VERTEX_POINT($,#350);
#111=VERTEX_POINT($,#356);
#112=VERTEX_POINT($,#366);
#113=VERTEX_POINT($,#368);
#114=VERTEX_POINT($,#371);
#115=VERTEX_POINT($,#374);
#116=VERTEX_POINT($,#377);
#117=VERTEX_POINT($,#381);
#118=VERTEX_POINT($,#384);
#119=EDGE_CURVE($,#99,#100,#87,.T.);
#120=EDGE_CURVE($,#101,#99,#75,.T.);
#121=EDGE_CURVE($,#102,#101,#88,.T.);
#122=EDGE_CURVE($,#100,#102,#76,.T.);
#123=EDGE_CURVE($,#103,#99,#89,.T.);
#124=EDGE_CURVE($,#104,#103,#77,.T.);
#125=EDGE_CURVE($,#101,#104,#90,.T.);
#126=EDGE_CURVE($,#105,#103,#91,.T.);
#127=EDGE_CURVE($,#106,#105,#78,.T.);
#128=EDGE_CURVE($,#104,#106,#92,.T.);
#129=EDGE_CURVE($,#107,#105,#93,.T.);
#130=EDGE_CURVE($,#108,#107,#79,.T.);
#131=EDGE_CURVE($,#106,#108,#94,.T.);
#132=EDGE_CURVE($,#109,#107,#95,.T.);
#133=EDGE_CURVE($,#109,#110,#80,.T.);
#134=EDGE_CURVE($,#108,#110,#96,.T.);
#135=EDGE_CURVE($,#111,#111,#27,.T.);
#136=EDGE_CURVE($,#110,#102,#97,.T.);
#137=EDGE_CURVE($,#100,#109,#98,.T.);
#138=EDGE_CURVE($,#112,#112,#28,.T.);
#139=EDGE_CURVE($,#113,#113,#29,.T.);
#140=EDGE_CURVE($,#114,#114,#30,.T.);
#141=EDGE_CURVE($,#115,#115,#31,.T.);
#142=EDGE_CURVE($,#116,#116,#32,.T.);
#143=EDGE_CURVE($,#117,#117,#33,.T.);
#144=EDGE_CURVE($,#118,#118,#34,.T.);
#145=ORIENTED_EDGE($,*,*,#119,.F.);
#146=ORIENTED_EDGE($,*,*,#120,.F.);
#147=ORIENTED_EDGE($,*,*,#121,.F.);
#148=ORIENTED_EDGE($,*,*,#122,.F.);
#149=ORIENTED_EDGE($,*,*,#123,.F.);
#150=ORIENTED_EDGE($,*,*,#124,.F.);
#151=ORIENTED_EDGE($,*,*,#125,.F.);
#152=ORIENTED_EDGE($,*,*,#120,.T.);
#153=ORIENTED_EDGE($,*,*,#126,.F.);
#154=ORIENTED_EDGE($,*,*,#127,.F.);
#155=ORIENTED_EDGE($,*,*,#128,.F.);
#156=ORIENTED_EDGE($,*,*,#124,.T.);
#157=ORIENTED_EDGE($,*,*,#129,.F.);
#158=ORIENTED_EDGE($,*,*,#130,.F.);
#159=ORIENTED_EDGE($,*,*,#131,.F.);
#160=ORIENTED_EDGE($,*,*,#127,.T.);
#161=ORIENTED_EDGE($,*,*,#132,.F.);
#162=ORIENTED_EDGE($,*,*,#133,.T.);
#163=ORIENTED_EDGE($,*,*,#134,.F.);
#164=ORIENTED_EDGE($,*,*,#130,.T.);
#165=ORIENTED_EDGE($,*,*,#135,.F.);
#166=ORIENTED_EDGE($,*,*,#121,.T.);
#167=ORIENTED_EDGE($,*,*,#125,.T.);
#168=ORIENTED_EDGE($,*,*,#128,.T.);
#169=ORIENTED_EDGE($,*,*,#131,.T.);
#170=ORIENTED_EDGE($,*,*,#134,.T.);
#171=ORIENTED_EDGE($,*,*,#136,.T.);
#172=ORIENTED_EDGE($,*,*,#136,.F.);
#173=ORIENTED_EDGE($,*,*,#133,.F.);
#174=ORIENTED_EDGE($,*,*,#137,.F.);
#175=ORIENTED_EDGE($,*,*,#122,.T.);
#176=ORIENTED_EDGE($,*,*,#138,.F.);
#177=ORIENTED_EDGE($,*,*,#139,.T.);
#178=ORIENTED_EDGE($,*,*,#140,.F.);
#179=ORIENTED_EDGE($,*,*,#138,.T.);
#180=ORIENTED_EDGE($,*,*,#141,.F.);
#181=ORIENTED_EDGE($,*,*,#140,.T.);
#182=ORIENTED_EDGE($,*,*,#142,.F.);
#183=ORIENTED_EDGE($,*,*,#141,.T.);
#184=ORIENTED_EDGE($,*,*,#119,.T.);
#185=ORIENTED_EDGE($,*,*,#137,.T.);
#186=ORIENTED_EDGE($,*,*,#132,.T.);
#187=ORIENTED_EDGE($,*,*,#129,.T.);
#188=ORIENTED_EDGE($,*,*,#126,.T.);
#189=ORIENTED_EDGE($,*,*,#123,.T.);
#190=ORIENTED_EDGE($,*,*,#142,.T.);
#191=ORIENTED_EDGE($,*,*,#143,.F.);
#192=ORIENTED_EDGE($,*,*,#135,.T.);
#193=ORIENTED_EDGE($,*,*,#144,.F.);
#194=ORIENTED_EDGE($,*,*,#143,.T.);
#195=ORIENTED_EDGE($,*,*,#139,.F.);
#196=ORIENTED_EDGE($,*,*,#144,.T.);
#197=PLANE($,#224);
#198=PLANE($,#225);
#199=PLANE($,#226);
#200=PLANE($,#227);
#201=PLANE($,#228);
#202=PLANE($,#231);
#203=PLANE($,#235);
#204=PLANE($,#242);
#205=PLANE($,#246);
#206=ADVANCED_FACE($,(#38),#197,.F.);
#207=ADVANCED_FACE($,(#39),#198,.F.);
#208=ADVANCED_FACE($,(#40),#199,.F.);
#209=ADVANCED_FACE($,(#41),#200,.F.);
#210=ADVANCED_FACE($,(#42),#201,.F.);
#211=ADVANCED_FACE($,(#43,#16),#35,.T.);
#212=ADVANCED_FACE($,(#44),#202,.F.);
#213=ADVANCED_FACE($,(#45,#17),#13,.F.);
#214=ADVANCED_FACE($,(#46,#18),#203,.T.);
#215=ADVANCED_FACE($,(#47,#19),#36,.T.);
#216=ADVANCED_FACE($,(#48,#20),#14,.T.);
#217=ADVANCED_FACE($,(#49,#21),#37,.T.);
#218=ADVANCED_FACE($,(#22,#23),#204,.T.);
#219=ADVANCED_FACE($,(#50,#24),#15,.T.);
#220=ADVANCED_FACE($,(#25,#26),#205,.T.);
#221=CLOSED_SHELL($,(#206,#207,#208,#209,#210,#211,#212,#213,#214,#215,
#216,#217,#218,#219,#220));
#222=MANIFOLD_SOLID_BREP('Volumenk\X\F6rper1',#221);
#223=AXIS2_PLACEMENT_3D('placement',#301,#247,#248);
#224=AXIS2_PLACEMENT_3D($,#302,#249,#250);
#225=AXIS2_PLACEMENT_3D($,#315,#253,#254);
#226=AXIS2_PLACEMENT_3D($,#325,#256,#257);
#227=AXIS2_PLACEMENT_3D($,#335,#259,#260);
#228=AXIS2_PLACEMENT_3D($,#345,#262,#263);
#229=AXIS2_PLACEMENT_3D($,#355,#265,#266);
#230=AXIS2_PLACEMENT_3D($,#357,#267,#268);
#231=AXIS2_PLACEMENT_3D($,#361,#269,#270);
#232=AXIS2_PLACEMENT_3D($,#365,#271,#272);
#233=AXIS2_PLACEMENT_3D($,#367,#273,#274);
#234=AXIS2_PLACEMENT_3D($,#369,#275,#276);
#235=AXIS2_PLACEMENT_3D($,#370,#277,#278);
#236=AXIS2_PLACEMENT_3D($,#372,#279,#280);
#237=AXIS2_PLACEMENT_3D($,#373,#281,#282);
#238=AXIS2_PLACEMENT_3D($,#375,#283,#284);
#239=AXIS2_PLACEMENT_3D($,#376,#285,#286);
#240=AXIS2_PLACEMENT_3D($,#378,#287,#288);
#241=AXIS2_PLACEMENT_3D($,#379,#289,#290);
#242=AXIS2_PLACEMENT_3D($,#380,#291,#292);
#243=AXIS2_PLACEMENT_3D($,#382,#293,#294);
#244=AXIS2_PLACEMENT_3D($,#383,#295,#296);
#245=AXIS2_PLACEMENT_3D($,#385,#297,#298);
#246=AXIS2_PLACEMENT_3D($,#386,#299,#300);
#247=DIRECTION('axis',(0.,0.,1.));
#248=DIRECTION('refdir',(1.,0.,0.));
#249=DIRECTION('center_axis',(0.,-0.499999999999999,0.866025403784439));
#250=DIRECTION('ref_axis',(0.,-0.866025403784439,-0.499999999999999));
#251=DIRECTION($,(1.,6.08453061007792E-017,1.0538716156863E-016));
#252=DIRECTION($,(-1.,-1.63034506329283E-017,-6.08453061007792E-017));
#253=DIRECTION('center_axis',(0.,0.500000000000001,0.866025403784438));
#254=DIRECTION('ref_axis',(0.,-0.866025403784438,0.500000000000001));
#255=DIRECTION($,(1.,6.08453061007792E-017,1.0538716156863E-016));
#256=DIRECTION('center_axis',(0.,1.,-3.88578058618805E-016));
#257=DIRECTION('ref_axis',(0.,3.5527136788005E-016,1.));
#258=DIRECTION($,(1.,6.08453061007792E-017,1.0538716156863E-016));
#259=DIRECTION('center_axis',(0.,0.5,-0.866025403784439));
#260=DIRECTION('ref_axis',(0.,0.866025403784439,0.5));
#261=DIRECTION($,(1.,6.08453061007792E-017,1.0538716156863E-016));
#262=DIRECTION('center_axis',(0.,-0.5,-0.866025403784439));
#263=DIRECTION('ref_axis',(0.,0.866025403784439,-0.5));
#264=DIRECTION($,(-1.,-1.63034506329283E-017,6.08453061007792E-017));
#265=DIRECTION('center_axis',(1.,1.21690612201558E-016,0.));
#266=DIRECTION('ref_axis',(-1.0538716156863E-016,0.866025403784439,0.5));
#267=DIRECTION('center_axis',(-1.,-6.08453061007791E-017,1.0538716156863E-016));
#268=DIRECTION('ref_axis',(-1.0538716156863E-016,0.866025403784438,-0.500000000000001));
#269=DIRECTION('center_axis',(0.,-1.,1.67214146642049E-016));
#270=DIRECTION('ref_axis',(0.,0.,-1.));
#271=DIRECTION('center_axis',(-1.,-1.21690612201558E-016,0.));
#272=DIRECTION('ref_axis',(-1.0538716156863E-016,0.866025403784439,0.5));
#273=DIRECTION('center_axis',(-1.,-6.08453061007791E-017,1.0538716156863E-016));
#274=DIRECTION('ref_axis',(-1.0538716156863E-016,0.866025403784438,-0.500000000000001));
#275=DIRECTION('center_axis',(-1.,-6.08453061007791E-017,1.0538716156863E-016));
#276=DIRECTION('ref_axis',(-1.0538716156863E-016,0.866025403784438,-0.500000000000001));
#277=DIRECTION('center_axis',(1.,1.21690612201558E-016,0.));
#278=DIRECTION('ref_axis',(0.,0.5,-0.866025403784439));
#279=DIRECTION('center_axis',(-1.,-6.08453061007791E-017,1.0538716156863E-016));
#280=DIRECTION('ref_axis',(-1.0538716156863E-016,0.866025403784438,-0.500000000000001));
#281=DIRECTION('center_axis',(-1.,-1.21690612201558E-016,0.));
#282=DIRECTION('ref_axis',(-1.0538716156863E-016,0.866025403784439,0.5));
#283=DIRECTION('center_axis',(-1.,-6.08453061007791E-017,1.0538716156863E-016));
#284=DIRECTION('ref_axis',(-1.0538716156863E-016,0.866025403784438,-0.500000000000001));
#285=DIRECTION('center_axis',(-1.,-1.21690612201558E-016,0.));
#286=DIRECTION('ref_axis',(-1.0538716156863E-016,0.866025403784439,0.5));
#287=DIRECTION('center_axis',(-1.,-6.08453061007791E-017,1.0538716156863E-016));
#288=DIRECTION('ref_axis',(-1.0538716156863E-016,0.866025403784438,-0.500000000000001));
#289=DIRECTION('center_axis',(-1.,-1.21690612201558E-016,0.));
#290=DIRECTION('ref_axis',(-1.0538716156863E-016,0.866025403784439,0.5));
#291=DIRECTION('center_axis',(-1.,-1.21690612201558E-016,0.));
#292=DIRECTION('ref_axis',(0.,-0.5,0.866025403784439));
#293=DIRECTION('center_axis',(-1.,-6.08453061007791E-017,1.0538716156863E-016));
#294=DIRECTION('ref_axis',(-1.0538716156863E-016,0.866025403784438,-0.500000000000001));
#295=DIRECTION('center_axis',(-1.,-1.21690612201558E-016,0.));
#296=DIRECTION('ref_axis',(-1.0538716156863E-016,0.866025403784439,0.5));
#297=DIRECTION('center_axis',(-1.,-1.21690612201558E-016,0.));
#298=DIRECTION('ref_axis',(-1.0538716156863E-016,0.866025403784439,0.5));
#299=DIRECTION('center_axis',(-1.,-1.21690612201558E-016,0.));
#300=DIRECTION('ref_axis',(6.08453061007792E-017,-0.5,0.866025403784439));
#301=CARTESIAN_POINT('',(0.,0.,0.));
#302=CARTESIAN_POINT('Origin',(47.,-2.22044604925031E-014,-26.5581123827228));
#303=CARTESIAN_POINT('',(58.3986505619486,-3.10862446895044E-014,-26.5581123827228));
#304=CARTESIAN_POINT('',(58.3986505619486,23.,-13.2790561913614));
#305=CARTESIAN_POINT('Ctrl Pts',(58.3986505619486,1.13245531365945E-013,
-26.5581123827227));
#306=CARTESIAN_POINT('Ctrl Pts',(60.17770675331,11.5,-19.9185842870421));
#307=CARTESIAN_POINT('Ctrl Pts',(58.3986505619486,22.9999999999998,-13.2790561913615));
#308=CARTESIAN_POINT('',(49.4003189786578,-3.77475828372553E-014,-26.5581123827228));
#309=CARTESIAN_POINT($,(53.8994847703032,-2.22044604925031E-014,-26.5581123827228));
#310=CARTESIAN_POINT('',(49.4003189786578,23.,-13.2790561913614));
#311=CARTESIAN_POINT('Ctrl Pts',(49.4003189786578,23.,-13.2790561913614));
#312=CARTESIAN_POINT('Ctrl Pts',(47.6212627872964,11.4999999999999,-19.9185842870421));
#313=CARTESIAN_POINT('Ctrl Pts',(49.4003189786578,-1.70692289082476E-014,
-26.5581123827228));
#314=CARTESIAN_POINT($,(58.3986505619486,23.,-13.2790561913614));
#315=CARTESIAN_POINT('Origin',(47.,-23.,-13.2790561913614));
#316=CARTESIAN_POINT('',(58.3986505619486,-23.,-13.2790561913614));
#317=CARTESIAN_POINT('Ctrl Pts',(58.3986505619486,-22.9999999999999,-13.2790561913614));
#318=CARTESIAN_POINT('Ctrl Pts',(60.17770675331,-11.5,-19.9185842870421));
#319=CARTESIAN_POINT('Ctrl Pts',(58.3986505619486,-7.29268306151429E-014,
-26.5581123827227));
#320=CARTESIAN_POINT('',(49.4003189786578,-23.,-13.2790561913614));
#321=CARTESIAN_POINT($,(53.8994847703032,-23.,-13.2790561913614));
#322=CARTESIAN_POINT('Ctrl Pts',(49.4003189786578,-1.15892368927109E-013,
-26.5581123827227));
#323=CARTESIAN_POINT('Ctrl Pts',(47.6212627872964,-11.5,-19.918584287042));
#324=CARTESIAN_POINT('Ctrl Pts',(49.4003189786578,-22.9999999999999,-13.2790561913614));
#325=CARTESIAN_POINT('Origin',(47.,-23.,13.2790561913614));
#326=CARTESIAN_POINT('',(58.3986505619486,-23.,13.2790561913614));
#327=CARTESIAN_POINT('Ctrl Pts',(58.3986505619486,-23.,13.2790561913613));
#328=CARTESIAN_POINT('Ctrl Pts',(60.17770675331,-23.,6.66133814775094E-015));
#329=CARTESIAN_POINT('Ctrl Pts',(58.3986505619486,-23.,-13.2790561913613));
#330=CARTESIAN_POINT('',(49.4003189786578,-23.,13.2790561913614));
#331=CARTESIAN_POINT($,(53.8994847703032,-23.,13.2790561913614));
#332=CARTESIAN_POINT('Ctrl Pts',(49.4003189786578,-23.,-13.2790561913613));
#333=CARTESIAN_POINT('Ctrl Pts',(47.6212627872964,-23.,8.88178419700125E-015));
#334=CARTESIAN_POINT('Ctrl Pts',(49.4003189786578,-23.,13.2790561913613));
#335=CARTESIAN_POINT('Origin',(47.,4.44089209850063E-015,26.5581123827228));
#336=CARTESIAN_POINT('',(58.3986505619486,-1.33226762955019E-014,26.5581123827227));
#337=CARTESIAN_POINT('Ctrl Pts',(58.3986505619486,-5.30684453371601E-014,
26.5581123827227));
#338=CARTESIAN_POINT('Ctrl Pts',(60.17770675331,-11.4999999999999,19.9185842870421));
#339=CARTESIAN_POINT('Ctrl Pts',(58.3986505619486,-22.9999999999999,13.2790561913614));
#340=CARTESIAN_POINT('',(49.4003189786578,-4.44089209850063E-015,26.5581123827228));
#341=CARTESIAN_POINT($,(53.8994847703032,2.22044604925031E-015,26.5581123827228));
#342=CARTESIAN_POINT('Ctrl Pts',(49.4003189786578,-22.9999999999999,13.2790561913614));
#343=CARTESIAN_POINT('Ctrl Pts',(47.6212627872964,-11.5,19.9185842870421));
#344=CARTESIAN_POINT('Ctrl Pts',(49.4003189786578,-6.24744554034E-014,26.5581123827227));
#345=CARTESIAN_POINT('Origin',(47.,23.,13.2790561913614));
#346=CARTESIAN_POINT('',(58.3986505619486,23.,13.2790561913614));
#347=CARTESIAN_POINT('Ctrl Pts',(58.3986505619486,22.9999999999999,13.2790561913615));
#348=CARTESIAN_POINT('Ctrl Pts',(60.17770675331,11.5,19.9185842870421));
#349=CARTESIAN_POINT('Ctrl Pts',(58.3986505619486,1.55444600081658E-013,
26.5581123827227));
#350=CARTESIAN_POINT('',(49.4003189786578,23.,13.2790561913614));
#351=CARTESIAN_POINT($,(58.3986505619486,23.,13.2790561913614));
#352=CARTESIAN_POINT('Ctrl Pts',(49.4003189786578,8.30428001551414E-015,
26.5581123827228));
#353=CARTESIAN_POINT('Ctrl Pts',(47.6212627872964,11.5,19.9185842870421));
#354=CARTESIAN_POINT('Ctrl Pts',(49.4003189786578,23.,13.2790561913614));
#355=CARTESIAN_POINT('Origin',(48.2001594893289,5.86550691646919E-015,0.));
#356=CARTESIAN_POINT('',(47.,15.2420471066062,-8.80000000000002));
#357=CARTESIAN_POINT('Origin',(47.,2.85972938673662E-015,-4.95319659372562E-015));
#358=CARTESIAN_POINT('Ctrl Pts',(49.4003189786578,23.,13.2790561913614));
#359=CARTESIAN_POINT('Ctrl Pts',(47.6212627872964,23.,-5.55111512312578E-015));
#360=CARTESIAN_POINT('Ctrl Pts',(49.4003189786578,23.,-13.2790561913614));
#361=CARTESIAN_POINT('Origin',(47.,23.,-13.2790561913614));
#362=CARTESIAN_POINT('Ctrl Pts',(58.3986505619486,23.,-13.2790561913612));
#363=CARTESIAN_POINT('Ctrl Pts',(60.17770675331,23.,-1.11022302462516E-015));
#364=CARTESIAN_POINT('Ctrl Pts',(58.3986505619486,23.,13.2790561913612));
#365=CARTESIAN_POINT('Origin',(40.,4.86762448806234E-015,0.));
#366=CARTESIAN_POINT('',(80.,13.856406460551,-8.00000000000001));
#367=CARTESIAN_POINT('Origin',(80.,4.86762448806233E-015,-8.43097292549042E-015));
#368=CARTESIAN_POINT('',(-1.13488658195492E-015,13.856406460551,-8.));
#369=CARTESIAN_POINT('Origin',(1.94704979522494E-015,1.18468840783921E-031,
-2.05194051351539E-031));
#370=CARTESIAN_POINT('Origin',(80.,15.3524653455887,8.86375000000001));
#371=CARTESIAN_POINT('',(80.,16.8485242306263,-9.72750000000001));
#372=CARTESIAN_POINT('Origin',(80.,4.86762448806233E-015,-8.43097292549042E-015));
#373=CARTESIAN_POINT('Origin',(79.25,9.64398101697351E-015,0.));
#374=CARTESIAN_POINT('',(78.5,18.1475623363029,-10.4775));
#375=CARTESIAN_POINT('Origin',(78.5,4.77635652891116E-015,-8.27289218313748E-015));
#376=CARTESIAN_POINT('Origin',(69.2,8.42099036434785E-015,4.93038065763132E-031));
#377=CARTESIAN_POINT('',(59.9,18.1475623363029,-10.4775));
#378=CARTESIAN_POINT('Origin',(59.9,3.64463383543667E-015,-6.31269097796095E-015));
#379=CARTESIAN_POINT('Origin',(59.1493252809743,7.19791760475088E-015,4.93038065763132E-031));
#380=CARTESIAN_POINT('Origin',(47.,15.1987458364169,8.77500000000002));
#381=CARTESIAN_POINT('',(47.,15.1554445662277,-8.75000000000002));
#382=CARTESIAN_POINT('Origin',(47.,2.85972938673662E-015,-4.95319659372562E-015));
#383=CARTESIAN_POINT('Origin',(23.5,2.85972938673662E-015,0.));
#384=CARTESIAN_POINT('',(-1.29296732430786E-015,15.1554445662277,-8.75000000000001));
#385=CARTESIAN_POINT('Origin',(2.41396061867923E-015,2.93756345517528E-031,
2.73691106313441E-047));
#386=CARTESIAN_POINT('Origin',(4.15270250677524E-016,14.5059255133894,8.37500000000001));
#387=UNCERTAINTY_MEASURE_WITH_UNIT(LENGTH_MEASURE(0.01),#389,
'DISTANCE_ACCURACY_VALUE',
'Maximum model space distance between geometric entities at asserted c
onnectivities');
#388=(
GEOMETRIC_REPRESENTATION_CONTEXT(3)
GLOBAL_UNCERTAINTY_ASSIGNED_CONTEXT((#387))
GLOBAL_UNIT_ASSIGNED_CONTEXT((#389,#392,#390))
REPRESENTATION_CONTEXT('','3D')
);
#389=(
LENGTH_UNIT()
NAMED_UNIT(*)
SI_UNIT(.MILLI.,.METRE.)
);
#390=(
NAMED_UNIT(*)
SI_UNIT($,.STERADIAN.)
SOLID_ANGLE_UNIT()
);
#391=DIMENSIONAL_EXPONENTS(0.,0.,0.,0.,0.,0.,0.);
#392=(
CONVERSION_BASED_UNIT('degree',#394)
NAMED_UNIT(#391)
PLANE_ANGLE_UNIT()
);
#393=(
NAMED_UNIT(*)
PLANE_ANGLE_UNIT()
SI_UNIT($,.RADIAN.)
);
#394=PLANE_ANGLE_MEASURE_WITH_UNIT(PLANE_ANGLE_MEASURE(0.01745329252),#393);
#395=SHAPE_DEFINITION_REPRESENTATION(#396,#397);
#396=PRODUCT_DEFINITION_SHAPE('',$,#399);
#397=SHAPE_REPRESENTATION('',(#223),#388);
#398=PRODUCT_DEFINITION_CONTEXT('3D Mechanical Parts',#402,'design');
#399=PRODUCT_DEFINITION('31938','31938',#400,#398);
#400=PRODUCT_DEFINITION_FORMATION('',$,#404);
#401=APPLICATION_PROTOCOL_DEFINITION('international standard',
'automotive_design',2009,#402);
#402=APPLICATION_CONTEXT(
'Core Data for Automotive Mechanical Design Process');
#403=PRODUCT_CONTEXT('3D Mechanical Parts',#402,'mechanical');
#404=PRODUCT('31938','31938',$,(#403));
#405=PRESENTATION_STYLE_ASSIGNMENT((#406));
#406=SURFACE_STYLE_USAGE(.BOTH.,#407);
#407=SURFACE_SIDE_STYLE($,(#408));
#408=SURFACE_STYLE_FILL_AREA(#409);
#409=FILL_AREA_STYLE($,(#410));
#410=FILL_AREA_STYLE_COLOUR($,#411);
#411=COLOUR_RGB('',1.,1.,1.);
ENDSEC;
END-ISO-10303-21;
