ISO-10303-21;
HEADER;
/* Generated by software containing ST-Developer
 * from STEP Tools, Inc. (www.steptools.com) 
 */

FILE_DESCRIPTION(
/* description */ (''),
/* implementation_level */ '2;1');

FILE_NAME(
/* name */ 'Z:\\Geberit\\Export\\NewStep\\90988.stp',
/* time_stamp */ '2014-04-03T10:25:25+02:00',
/* author */ ('bruh'),
/* organization */ (''),
/* preprocessor_version */ 'ST-DEVELOPER v15.2',
/* originating_system */ 'Autodesk Inventor 2014',
/* authorisation */ '');

FILE_SCHEMA (('AUTOMOTIVE_DESIGN { 1 0 10303 214 3 1 1 }'));
ENDSEC;

DATA;
#10=ITEM_DEFINED_TRANSFORMATION($,$,#180,#208);
#11=ITEM_DEFINED_TRANSFORMATION($,$,#198,#209);
#12=(
REPRESENTATION_RELATIONSHIP($,$,#402,#404)
REPRESENTATION_RELATIONSHIP_WITH_TRANSFORMATION(#10)
SHAPE_REPRESENTATION_RELATIONSHIP()
);
#13=(
REPRESENTATION_RELATIONSHIP($,$,#403,#404)
REPRESENTATION_RELATIONSHIP_WITH_TRANSFORMATION(#11)
SHAPE_REPRESENTATION_RELATIONSHIP()
);
#14=CONTEXT_DEPENDENT_SHAPE_REPRESENTATION(#12,#400);
#15=CONTEXT_DEPENDENT_SHAPE_REPRESENTATION(#13,#401);
#16=NEXT_ASSEMBLY_USAGE_OCCURRENCE('102556:1',$,$,#408,#406,$);
#17=NEXT_ASSEMBLY_USAGE_OCCURRENCE('100116:1',$,$,#408,#407,$);
#18=SHAPE_REPRESENTATION_RELATIONSHIP('SRR','None',#402,#20);
#19=SHAPE_REPRESENTATION_RELATIONSHIP('SRR','None',#403,#21);
#20=ADVANCED_BREP_SHAPE_REPRESENTATION($,(#178),#385);
#21=ADVANCED_BREP_SHAPE_REPRESENTATION($,(#179),#386);
#22=STYLED_ITEM($,(#418),#178);
#23=STYLED_ITEM($,(#419),#179);
#24=CONICAL_SURFACE($,#187,51.,45.0000000000001);
#25=CONICAL_SURFACE($,#191,51.,45.);
#26=CIRCLE($,#183,48.);
#27=CIRCLE($,#184,44.75);
#28=CIRCLE($,#186,48.);
#29=CIRCLE($,#188,54.);
#30=CIRCLE($,#190,54.);
#31=CIRCLE($,#192,48.);
#32=CIRCLE($,#194,48.);
#33=CIRCLE($,#196,44.75);
#34=CIRCLE($,#200,42.45);
#35=CIRCLE($,#201,42.45);
#36=CIRCLE($,#203,44.45);
#37=CIRCLE($,#205,44.45);
#38=PLANE($,#182);
#39=PLANE($,#195);
#40=PLANE($,#202);
#41=PLANE($,#206);
#42=FACE_BOUND($,#71,.T.);
#43=FACE_BOUND($,#73,.T.);
#44=FACE_BOUND($,#75,.T.);
#45=FACE_BOUND($,#77,.T.);
#46=FACE_BOUND($,#78,.T.);
#47=FACE_BOUND($,#79,.T.);
#48=FACE_BOUND($,#80,.T.);
#49=FACE_BOUND($,#82,.T.);
#50=FACE_BOUND($,#84,.T.);
#51=FACE_BOUND($,#85,.T.);
#52=FACE_BOUND($,#86,.T.);
#53=FACE_BOUND($,#87,.T.);
#54=FACE_BOUND($,#88,.T.);
#55=FACE_BOUND($,#89,.T.);
#56=FACE_BOUND($,#91,.T.);
#57=FACE_BOUND($,#92,.T.);
#58=FACE_BOUND($,#93,.T.);
#59=FACE_BOUND($,#95,.T.);
#60=FACE_BOUND($,#96,.T.);
#61=FACE_BOUND($,#97,.T.);
#62=FACE_OUTER_BOUND($,#70,.T.);
#63=FACE_OUTER_BOUND($,#72,.T.);
#64=FACE_OUTER_BOUND($,#74,.T.);
#65=FACE_OUTER_BOUND($,#76,.T.);
#66=FACE_OUTER_BOUND($,#81,.T.);
#67=FACE_OUTER_BOUND($,#83,.T.);
#68=FACE_OUTER_BOUND($,#90,.T.);
#69=FACE_OUTER_BOUND($,#94,.T.);
#70=EDGE_LOOP($,(#128));
#71=EDGE_LOOP($,(#129));
#72=EDGE_LOOP($,(#130));
#73=EDGE_LOOP($,(#131));
#74=EDGE_LOOP($,(#132));
#75=EDGE_LOOP($,(#133));
#76=EDGE_LOOP($,(#134));
#77=EDGE_LOOP($,(#135));
#78=EDGE_LOOP($,(#136));
#79=EDGE_LOOP($,(#137));
#80=EDGE_LOOP($,(#138));
#81=EDGE_LOOP($,(#139));
#82=EDGE_LOOP($,(#140));
#83=EDGE_LOOP($,(#141));
#84=EDGE_LOOP($,(#142));
#85=EDGE_LOOP($,(#143));
#86=EDGE_LOOP($,(#144));
#87=EDGE_LOOP($,(#145));
#88=EDGE_LOOP($,(#146));
#89=EDGE_LOOP($,(#147));
#90=EDGE_LOOP($,(#148));
#91=EDGE_LOOP($,(#149));
#92=EDGE_LOOP($,(#150));
#93=EDGE_LOOP($,(#151));
#94=EDGE_LOOP($,(#152));
#95=EDGE_LOOP($,(#153));
#96=EDGE_LOOP($,(#154));
#97=EDGE_LOOP($,(#155));
#98=B_SPLINE_CURVE_WITH_KNOTS($,3,(#273,#274,#275,#276,#277,#278,#279,#280,
#281,#282,#283,#284,#285,#286,#287,#288,#289,#290,#291,#292,#293,#294,#295,
#296,#297,#298,#299,#300,#301,#302,#303,#304,#305,#306),.UNSPECIFIED.,.T.,
 .F.,(4,2,2,2,2,2,2,2,2,2,2,2,2,2,2,2,4),(0.,0.0753376765267036,0.150675353053407,
0.226023116396596,0.301370879739784,0.376758615147012,0.45214635055424,
0.527510373435521,0.602874396316802,0.678220638887317,0.753566881457831,
0.828972396192138,0.904377910926445,0.979723138659927,1.05506836639341,
1.13040857846872,1.20574879054402),.UNSPECIFIED.);
#99=B_SPLINE_CURVE_WITH_KNOTS($,3,(#308,#309,#310,#311,#312,#313,#314,#315,
#316,#317,#318,#319,#320,#321,#322,#323,#324,#325,#326,#327,#328,#329,#330,
#331,#332,#333,#334,#335,#336,#337,#338,#339,#340,#341),.UNSPECIFIED.,.T.,
 .F.,(4,2,2,2,2,2,2,2,2,2,2,2,2,2,2,2,4),(0.,0.0753415226152562,0.150683045230512,
0.226031873413866,0.30138070159722,0.376817387247107,0.452254072896995,
0.527604412366557,0.602954751836119,0.678305091305681,0.753655430775243,
0.829092116425131,0.904528802075019,0.979877630258372,1.05522645844173,
1.13056798105698,1.20590950367224),.UNSPECIFIED.);
#100=VERTEX_POINT($,#272);
#101=VERTEX_POINT($,#307);
#102=VERTEX_POINT($,#343);
#103=VERTEX_POINT($,#345);
#104=VERTEX_POINT($,#348);
#105=VERTEX_POINT($,#351);
#106=VERTEX_POINT($,#354);
#107=VERTEX_POINT($,#357);
#108=VERTEX_POINT($,#360);
#109=VERTEX_POINT($,#363);
#110=VERTEX_POINT($,#368);
#111=VERTEX_POINT($,#370);
#112=VERTEX_POINT($,#373);
#113=VERTEX_POINT($,#376);
#114=EDGE_CURVE($,#100,#100,#98,.T.);
#115=EDGE_CURVE($,#101,#101,#99,.T.);
#116=EDGE_CURVE($,#102,#102,#26,.T.);
#117=EDGE_CURVE($,#103,#103,#27,.T.);
#118=EDGE_CURVE($,#104,#104,#28,.T.);
#119=EDGE_CURVE($,#105,#105,#29,.T.);
#120=EDGE_CURVE($,#106,#106,#30,.T.);
#121=EDGE_CURVE($,#107,#107,#31,.T.);
#122=EDGE_CURVE($,#108,#108,#32,.T.);
#123=EDGE_CURVE($,#109,#109,#33,.T.);
#124=EDGE_CURVE($,#110,#110,#34,.T.);
#125=EDGE_CURVE($,#111,#111,#35,.T.);
#126=EDGE_CURVE($,#112,#112,#36,.T.);
#127=EDGE_CURVE($,#113,#113,#37,.T.);
#128=ORIENTED_EDGE($,*,*,#114,.F.);
#129=ORIENTED_EDGE($,*,*,#115,.F.);
#130=ORIENTED_EDGE($,*,*,#116,.F.);
#131=ORIENTED_EDGE($,*,*,#117,.T.);
#132=ORIENTED_EDGE($,*,*,#118,.F.);
#133=ORIENTED_EDGE($,*,*,#116,.T.);
#134=ORIENTED_EDGE($,*,*,#119,.F.);
#135=ORIENTED_EDGE($,*,*,#118,.T.);
#136=ORIENTED_EDGE($,*,*,#114,.T.);
#137=ORIENTED_EDGE($,*,*,#120,.F.);
#138=ORIENTED_EDGE($,*,*,#119,.T.);
#139=ORIENTED_EDGE($,*,*,#121,.F.);
#140=ORIENTED_EDGE($,*,*,#120,.T.);
#141=ORIENTED_EDGE($,*,*,#122,.F.);
#142=ORIENTED_EDGE($,*,*,#121,.T.);
#143=ORIENTED_EDGE($,*,*,#123,.F.);
#144=ORIENTED_EDGE($,*,*,#122,.T.);
#145=ORIENTED_EDGE($,*,*,#115,.T.);
#146=ORIENTED_EDGE($,*,*,#117,.F.);
#147=ORIENTED_EDGE($,*,*,#123,.T.);
#148=ORIENTED_EDGE($,*,*,#124,.F.);
#149=ORIENTED_EDGE($,*,*,#125,.F.);
#150=ORIENTED_EDGE($,*,*,#124,.T.);
#151=ORIENTED_EDGE($,*,*,#126,.F.);
#152=ORIENTED_EDGE($,*,*,#126,.T.);
#153=ORIENTED_EDGE($,*,*,#127,.T.);
#154=ORIENTED_EDGE($,*,*,#125,.T.);
#155=ORIENTED_EDGE($,*,*,#127,.F.);
#156=CYLINDRICAL_SURFACE($,#181,2.);
#157=CYLINDRICAL_SURFACE($,#185,48.);
#158=CYLINDRICAL_SURFACE($,#189,54.);
#159=CYLINDRICAL_SURFACE($,#193,48.);
#160=CYLINDRICAL_SURFACE($,#197,44.75);
#161=CYLINDRICAL_SURFACE($,#199,42.45);
#162=CYLINDRICAL_SURFACE($,#204,44.45);
#163=ADVANCED_FACE($,(#62,#42),#156,.F.);
#164=ADVANCED_FACE($,(#63,#43),#38,.T.);
#165=ADVANCED_FACE($,(#64,#44),#157,.T.);
#166=ADVANCED_FACE($,(#65,#45),#24,.T.);
#167=ADVANCED_FACE($,(#46,#47,#48),#158,.T.);
#168=ADVANCED_FACE($,(#66,#49),#25,.T.);
#169=ADVANCED_FACE($,(#67,#50),#159,.T.);
#170=ADVANCED_FACE($,(#51,#52),#39,.T.);
#171=ADVANCED_FACE($,(#53,#54,#55),#160,.F.);
#172=ADVANCED_FACE($,(#68,#56),#161,.F.);
#173=ADVANCED_FACE($,(#57,#58),#40,.T.);
#174=ADVANCED_FACE($,(#69,#59),#162,.T.);
#175=ADVANCED_FACE($,(#60,#61),#41,.F.);
#176=CLOSED_SHELL($,(#163,#164,#165,#166,#167,#168,#169,#170,#171));
#177=CLOSED_SHELL($,(#172,#173,#174,#175));
#178=MANIFOLD_SOLID_BREP('Volumenk\X\F6rper1',#176);
#179=MANIFOLD_SOLID_BREP('Volumenk\X\F6rper1',#177);
#180=AXIS2_PLACEMENT_3D('placement',#270,#210,#211);
#181=AXIS2_PLACEMENT_3D($,#271,#212,#213);
#182=AXIS2_PLACEMENT_3D($,#342,#214,#215);
#183=AXIS2_PLACEMENT_3D($,#344,#216,#217);
#184=AXIS2_PLACEMENT_3D($,#346,#218,#219);
#185=AXIS2_PLACEMENT_3D($,#347,#220,#221);
#186=AXIS2_PLACEMENT_3D($,#349,#222,#223);
#187=AXIS2_PLACEMENT_3D($,#350,#224,#225);
#188=AXIS2_PLACEMENT_3D($,#352,#226,#227);
#189=AXIS2_PLACEMENT_3D($,#353,#228,#229);
#190=AXIS2_PLACEMENT_3D($,#355,#230,#231);
#191=AXIS2_PLACEMENT_3D($,#356,#232,#233);
#192=AXIS2_PLACEMENT_3D($,#358,#234,#235);
#193=AXIS2_PLACEMENT_3D($,#359,#236,#237);
#194=AXIS2_PLACEMENT_3D($,#361,#238,#239);
#195=AXIS2_PLACEMENT_3D($,#362,#240,#241);
#196=AXIS2_PLACEMENT_3D($,#364,#242,#243);
#197=AXIS2_PLACEMENT_3D($,#365,#244,#245);
#198=AXIS2_PLACEMENT_3D('placement',#366,#246,#247);
#199=AXIS2_PLACEMENT_3D($,#367,#248,#249);
#200=AXIS2_PLACEMENT_3D($,#369,#250,#251);
#201=AXIS2_PLACEMENT_3D($,#371,#252,#253);
#202=AXIS2_PLACEMENT_3D($,#372,#254,#255);
#203=AXIS2_PLACEMENT_3D($,#374,#256,#257);
#204=AXIS2_PLACEMENT_3D($,#375,#258,#259);
#205=AXIS2_PLACEMENT_3D($,#377,#260,#261);
#206=AXIS2_PLACEMENT_3D($,#378,#262,#263);
#207=AXIS2_PLACEMENT_3D('placement',#379,#264,#265);
#208=AXIS2_PLACEMENT_3D($,#380,#266,#267);
#209=AXIS2_PLACEMENT_3D($,#381,#268,#269);
#210=DIRECTION('axis',(0.,0.,1.));
#211=DIRECTION('refdir',(1.,0.,0.));
#212=DIRECTION('center_axis',(0.,-1.,0.));
#213=DIRECTION('ref_axis',(1.,0.,0.));
#214=DIRECTION('center_axis',(-1.,0.,0.));
#215=DIRECTION('ref_axis',(0.,0.,1.));
#216=DIRECTION('center_axis',(1.,0.,0.));
#217=DIRECTION('ref_axis',(0.,1.,0.));
#218=DIRECTION('center_axis',(1.,0.,0.));
#219=DIRECTION('ref_axis',(0.,1.,0.));
#220=DIRECTION('center_axis',(1.,0.,0.));
#221=DIRECTION('ref_axis',(0.,1.,0.));
#222=DIRECTION('center_axis',(1.,0.,0.));
#223=DIRECTION('ref_axis',(0.,1.,0.));
#224=DIRECTION('center_axis',(1.,0.,0.));
#225=DIRECTION('ref_axis',(0.,1.,0.));
#226=DIRECTION('center_axis',(1.,0.,0.));
#227=DIRECTION('ref_axis',(0.,1.,0.));
#228=DIRECTION('center_axis',(1.,0.,0.));
#229=DIRECTION('ref_axis',(0.,1.,0.));
#230=DIRECTION('center_axis',(1.,0.,0.));
#231=DIRECTION('ref_axis',(0.,1.,0.));
#232=DIRECTION('center_axis',(-1.,0.,0.));
#233=DIRECTION('ref_axis',(0.,1.,0.));
#234=DIRECTION('center_axis',(1.,0.,0.));
#235=DIRECTION('ref_axis',(0.,1.,0.));
#236=DIRECTION('center_axis',(1.,0.,0.));
#237=DIRECTION('ref_axis',(0.,1.,0.));
#238=DIRECTION('center_axis',(1.,0.,0.));
#239=DIRECTION('ref_axis',(0.,1.,0.));
#240=DIRECTION('center_axis',(1.,0.,0.));
#241=DIRECTION('ref_axis',(0.,0.,-1.));
#242=DIRECTION('center_axis',(1.,0.,0.));
#243=DIRECTION('ref_axis',(0.,1.,0.));
#244=DIRECTION('center_axis',(1.,0.,0.));
#245=DIRECTION('ref_axis',(0.,1.,0.));
#246=DIRECTION('axis',(0.,0.,1.));
#247=DIRECTION('refdir',(1.,0.,0.));
#248=DIRECTION('center_axis',(0.,0.,1.));
#249=DIRECTION('ref_axis',(-1.,0.,0.));
#250=DIRECTION('center_axis',(0.,0.,1.));
#251=DIRECTION('ref_axis',(-1.,0.,0.));
#252=DIRECTION('center_axis',(0.,0.,-1.));
#253=DIRECTION('ref_axis',(-1.,0.,0.));
#254=DIRECTION('center_axis',(0.,0.,-1.));
#255=DIRECTION('ref_axis',(-1.,0.,0.));
#256=DIRECTION('center_axis',(0.,0.,1.));
#257=DIRECTION('ref_axis',(-1.,0.,0.));
#258=DIRECTION('center_axis',(0.,0.,1.));
#259=DIRECTION('ref_axis',(-1.,0.,0.));
#260=DIRECTION('center_axis',(0.,0.,-1.));
#261=DIRECTION('ref_axis',(-1.,0.,0.));
#262=DIRECTION('center_axis',(0.,0.,-1.));
#263=DIRECTION('ref_axis',(-1.,0.,0.));
#264=DIRECTION('axis',(0.,0.,1.));
#265=DIRECTION('refdir',(1.,0.,0.));
#266=DIRECTION($,(0.,0.,1.));
#267=DIRECTION($,(1.,0.,0.));
#268=DIRECTION($,(-1.,0.,0.));
#269=DIRECTION($,(0.,0.,1.));
#270=CARTESIAN_POINT('',(0.,0.,0.));
#271=CARTESIAN_POINT('Origin',(-40.,0.,1.5));
#272=CARTESIAN_POINT('',(-40.,-53.9976851355685,-0.500000000000001));
#273=CARTESIAN_POINT('Ctrl Pts',(-40.,-53.9976851355685,-0.500000000000001));
#274=CARTESIAN_POINT('Ctrl Pts',(-40.2511255884223,-53.9976851355685,-0.500000000000001));
#275=CARTESIAN_POINT('Ctrl Pts',(-40.5189884812189,-53.9982229722175,-0.449812397357186));
#276=CARTESIAN_POINT('Ctrl Pts',(-41.0117460752043,-53.9995374444099,-0.245705390148633));
#277=CARTESIAN_POINT('Ctrl Pts',(-41.2366410679085,-54.0002139568923,-0.0917860568377252));
#278=CARTESIAN_POINT('Ctrl Pts',(-41.5918098316772,-53.9996497216803,0.263382706930987));
#279=CARTESIAN_POINT('Ctrl Pts',(-41.7457396721285,-53.9983543368003,0.488311172832729));
#280=CARTESIAN_POINT('Ctrl Pts',(-41.9498341675921,-53.9916491883859,0.98108959968388));
#281=CARTESIAN_POINT('Ctrl Pts',(-42.,-53.9861392910937,1.24893770539877));
#282=CARTESIAN_POINT('Ctrl Pts',(-42.,-53.9721823004687,1.75119548340037));
#283=CARTESIAN_POINT('Ctrl Pts',(-41.9497892073573,-53.962803513271,2.01906877226906));
#284=CARTESIAN_POINT('Ctrl Pts',(-41.7456751823473,-53.9421142443247,2.51179469140918));
#285=CARTESIAN_POINT('Ctrl Pts',(-41.5917745450632,-53.9309035030163,2.73665257968298));
#286=CARTESIAN_POINT('Ctrl Pts',(-41.2367084298738,-53.9117137143393,3.09171869487238));
#287=CARTESIAN_POINT('Ctrl Pts',(-41.0118695511685,-53.9024704316687,3.24563400417679));
#288=CARTESIAN_POINT('Ctrl Pts',(-40.5191240866403,-53.8897903236767,3.44977645759723));
#289=CARTESIAN_POINT('Ctrl Pts',(-40.2512134096043,-53.886454698746,3.5));
#290=CARTESIAN_POINT('Ctrl Pts',(-39.7488458580983,-53.886454698746,3.5));
#291=CARTESIAN_POINT('Ctrl Pts',(-39.4809943139201,-53.889788735138,3.44979995884704));
#292=CARTESIAN_POINT('Ctrl Pts',(-38.988339127748,-53.9024636042471,3.24574599367532));
#293=CARTESIAN_POINT('Ctrl Pts',(-38.7635313980134,-53.9117033231508,3.09189567069329));
#294=CARTESIAN_POINT('Ctrl Pts',(-38.4084024111635,-53.9308913704265,2.73689234881283));
#295=CARTESIAN_POINT('Ctrl Pts',(-38.2544367865781,-53.9421047367956,2.51200329975783));
#296=CARTESIAN_POINT('Ctrl Pts',(-38.0502342833234,-53.9627992916558,2.01918711896122));
#297=CARTESIAN_POINT('Ctrl Pts',(-38.,-53.9721806542347,1.75125472495519));
#298=CARTESIAN_POINT('Ctrl Pts',(-38.,-53.9861390563151,1.24894615416968));
#299=CARTESIAN_POINT('Ctrl Pts',(-38.0501624831243,-53.9916488521342,0.981106486095823));
#300=CARTESIAN_POINT('Ctrl Pts',(-38.2542443522575,-53.9983540381467,0.488340946486922));
#301=CARTESIAN_POINT('Ctrl Pts',(-38.4081649157793,-53.9996495498407,0.263416930093034));
#302=CARTESIAN_POINT('Ctrl Pts',(-38.7633247096747,-54.0002140342123,-0.0917608026385091));
#303=CARTESIAN_POINT('Ctrl Pts',(-38.9882241504876,-53.9995375290424,-0.245689412126035));
#304=CARTESIAN_POINT('Ctrl Pts',(-39.4809946297496,-53.9982230120639,-0.449809046434284));
#305=CARTESIAN_POINT('Ctrl Pts',(-39.748865959749,-53.9976851355685,-0.5));
#306=CARTESIAN_POINT('Ctrl Pts',(-40.,-53.9976851355685,-0.500000000000001));
#307=CARTESIAN_POINT('',(-40.,-44.7472066167263,-0.500000000000001));
#308=CARTESIAN_POINT('Ctrl Pts',(-40.,-44.7472066167263,-0.500000000000001));
#309=CARTESIAN_POINT('Ctrl Pts',(-39.7488615912825,-44.7472066167263,-0.500000000000001));
#310=CARTESIAN_POINT('Ctrl Pts',(-39.4809864967696,-44.7478557110841,-0.449807369789725));
#311=CARTESIAN_POINT('Ctrl Pts',(-38.9882106174829,-44.7494419820748,-0.245682114025244));
#312=CARTESIAN_POINT('Ctrl Pts',(-38.7633094081527,-44.7502583192538,-0.0917495922191791));
#313=CARTESIAN_POINT('Ctrl Pts',(-38.4081422339669,-44.7495769941795,0.263443705698929));
#314=CARTESIAN_POINT('Ctrl Pts',(-38.2542214288539,-44.7480134296448,0.488380707121183));
#315=CARTESIAN_POINT('Ctrl Pts',(-38.0501511699404,-44.7399214067451,0.981149393972533));
#316=CARTESIAN_POINT('Ctrl Pts',(-38.,-44.7332721332267,1.24897837731489));
#317=CARTESIAN_POINT('Ctrl Pts',(-38.,-44.7164245897816,1.75131431633869));
#318=CARTESIAN_POINT('Ctrl Pts',(-38.0502557977909,-44.7050991959559,2.01927842624788));
#319=CARTESIAN_POINT('Ctrl Pts',(-38.2545018384174,-44.6801144594126,2.51212089229667));
#320=CARTESIAN_POINT('Ctrl Pts',(-38.4084882939737,-44.6665754120436,2.73700690899444));
#321=CARTESIAN_POINT('Ctrl Pts',(-38.7636105271515,-44.6434089520331,3.09194607845221));
#322=CARTESIAN_POINT('Ctrl Pts',(-38.9883780822853,-44.6322526687367,3.24576451636582));
#323=CARTESIAN_POINT('Ctrl Pts',(-39.480985933172,-44.6169461782129,3.44979409943542));
#324=CARTESIAN_POINT('Ctrl Pts',(-39.7488322017681,-44.6129185326403,3.5));
#325=CARTESIAN_POINT('Ctrl Pts',(-40.2511677982319,-44.6129185326403,3.5));
#326=CARTESIAN_POINT('Ctrl Pts',(-40.519014066828,-44.6169461782129,3.44979409943542));
#327=CARTESIAN_POINT('Ctrl Pts',(-41.0116219177147,-44.6322526687367,3.24576451636582));
#328=CARTESIAN_POINT('Ctrl Pts',(-41.2363894728485,-44.6434089520331,3.09194607845221));
#329=CARTESIAN_POINT('Ctrl Pts',(-41.5915117060263,-44.6665754120436,2.73700690899445));
#330=CARTESIAN_POINT('Ctrl Pts',(-41.7454981615826,-44.6801144594126,2.51212089229667));
#331=CARTESIAN_POINT('Ctrl Pts',(-41.9497442022091,-44.7050991959559,2.01927842624788));
#332=CARTESIAN_POINT('Ctrl Pts',(-42.,-44.7164245897816,1.75131431633869));
#333=CARTESIAN_POINT('Ctrl Pts',(-42.,-44.7332721332267,1.24897837731489));
#334=CARTESIAN_POINT('Ctrl Pts',(-41.9498488300596,-44.7399214067451,0.981149393972533));
#335=CARTESIAN_POINT('Ctrl Pts',(-41.7457785711461,-44.7480134296448,0.488380707121183));
#336=CARTESIAN_POINT('Ctrl Pts',(-41.5918577660331,-44.7495769941795,0.26344370569893));
#337=CARTESIAN_POINT('Ctrl Pts',(-41.2366905918473,-44.7502583192538,-0.0917495922191789));
#338=CARTESIAN_POINT('Ctrl Pts',(-41.0117893825171,-44.7494419820748,-0.24568211402525));
#339=CARTESIAN_POINT('Ctrl Pts',(-40.5190135032304,-44.7478557110841,-0.449807369789726));
#340=CARTESIAN_POINT('Ctrl Pts',(-40.2511384087175,-44.7472066167263,-0.500000000000001));
#341=CARTESIAN_POINT('Ctrl Pts',(-40.,-44.7472066167263,-0.500000000000001));
#342=CARTESIAN_POINT('Origin',(-60.,46.375,0.));
#343=CARTESIAN_POINT('',(-60.,48.,0.));
#344=CARTESIAN_POINT('Origin',(-60.,0.,0.));
#345=CARTESIAN_POINT('',(-60.,44.75,0.));
#346=CARTESIAN_POINT('Origin',(-60.,0.,0.));
#347=CARTESIAN_POINT('Origin',(-55.,0.,0.));
#348=CARTESIAN_POINT('',(-50.,48.,0.));
#349=CARTESIAN_POINT('Origin',(-50.,0.,0.));
#350=CARTESIAN_POINT('Origin',(-47.,0.,0.));
#351=CARTESIAN_POINT('',(-44.,54.,0.));
#352=CARTESIAN_POINT('Origin',(-44.,0.,0.));
#353=CARTESIAN_POINT('Origin',(-8.88178419700125E-015,0.,0.));
#354=CARTESIAN_POINT('',(44.,54.,0.));
#355=CARTESIAN_POINT('Origin',(44.,0.,0.));
#356=CARTESIAN_POINT('Origin',(47.,0.,0.));
#357=CARTESIAN_POINT('',(50.,48.,0.));
#358=CARTESIAN_POINT('Origin',(50.,0.,0.));
#359=CARTESIAN_POINT('Origin',(55.,0.,0.));
#360=CARTESIAN_POINT('',(60.,48.,0.));
#361=CARTESIAN_POINT('Origin',(60.,0.,0.));
#362=CARTESIAN_POINT('Origin',(60.,46.375,0.));
#363=CARTESIAN_POINT('',(60.,44.75,0.));
#364=CARTESIAN_POINT('Origin',(60.,0.,0.));
#365=CARTESIAN_POINT('Origin',(0.,0.,0.));
#366=CARTESIAN_POINT('',(0.,0.,0.));
#367=CARTESIAN_POINT('Origin',(0.,0.,0.));
#368=CARTESIAN_POINT('',(42.45,5.19862566238051E-015,-225.));
#369=CARTESIAN_POINT('Origin',(0.,0.,-225.));
#370=CARTESIAN_POINT('',(42.45,5.19862566238051E-015,225.));
#371=CARTESIAN_POINT('Origin',(0.,0.,225.));
#372=CARTESIAN_POINT('Origin',(0.,0.,-225.));
#373=CARTESIAN_POINT('',(44.45,5.44355502220998E-015,-225.));
#374=CARTESIAN_POINT('Origin',(0.,0.,-225.));
#375=CARTESIAN_POINT('Origin',(0.,0.,0.));
#376=CARTESIAN_POINT('',(44.45,5.44355502220998E-015,225.));
#377=CARTESIAN_POINT('Origin',(0.,0.,225.));
#378=CARTESIAN_POINT('Origin',(0.,0.,225.));
#379=CARTESIAN_POINT('',(0.,0.,0.));
#380=CARTESIAN_POINT($,(0.,0.,0.));
#381=CARTESIAN_POINT($,(0.,0.,0.));
#382=UNCERTAINTY_MEASURE_WITH_UNIT(LENGTH_MEASURE(0.01),#388,
'DISTANCE_ACCURACY_VALUE',
'Maximum model space distance between geometric entities at asserted c
onnectivities');
#383=UNCERTAINTY_MEASURE_WITH_UNIT(LENGTH_MEASURE(0.01),#388,
'DISTANCE_ACCURACY_VALUE',
'Maximum model space distance between geometric entities at asserted c
onnectivities');
#384=UNCERTAINTY_MEASURE_WITH_UNIT(LENGTH_MEASURE(0.01),#388,
'DISTANCE_ACCURACY_VALUE',
'Maximum model space distance between geometric entities at asserted c
onnectivities');
#385=(
GEOMETRIC_REPRESENTATION_CONTEXT(3)
GLOBAL_UNCERTAINTY_ASSIGNED_CONTEXT((#382))
GLOBAL_UNIT_ASSIGNED_CONTEXT((#388,#391,#389))
REPRESENTATION_CONTEXT('','3D')
);
#386=(
GEOMETRIC_REPRESENTATION_CONTEXT(3)
GLOBAL_UNCERTAINTY_ASSIGNED_CONTEXT((#383))
GLOBAL_UNIT_ASSIGNED_CONTEXT((#388,#391,#389))
REPRESENTATION_CONTEXT('','3D')
);
#387=(
GEOMETRIC_REPRESENTATION_CONTEXT(3)
GLOBAL_UNCERTAINTY_ASSIGNED_CONTEXT((#384))
GLOBAL_UNIT_ASSIGNED_CONTEXT((#388,#391,#389))
REPRESENTATION_CONTEXT('','3D')
);
#388=(
LENGTH_UNIT()
NAMED_UNIT(*)
SI_UNIT(.MILLI.,.METRE.)
);
#389=(
NAMED_UNIT(*)
SI_UNIT($,.STERADIAN.)
SOLID_ANGLE_UNIT()
);
#390=DIMENSIONAL_EXPONENTS(0.,0.,0.,0.,0.,0.,0.);
#391=(
CONVERSION_BASED_UNIT('degree',#393)
NAMED_UNIT(#390)
PLANE_ANGLE_UNIT()
);
#392=(
NAMED_UNIT(*)
PLANE_ANGLE_UNIT()
SI_UNIT($,.RADIAN.)
);
#393=PLANE_ANGLE_MEASURE_WITH_UNIT(PLANE_ANGLE_MEASURE(0.01745329252),#392);
#394=SHAPE_DEFINITION_REPRESENTATION(#397,#402);
#395=SHAPE_DEFINITION_REPRESENTATION(#398,#403);
#396=SHAPE_DEFINITION_REPRESENTATION(#399,#404);
#397=PRODUCT_DEFINITION_SHAPE('',$,#406);
#398=PRODUCT_DEFINITION_SHAPE('',$,#407);
#399=PRODUCT_DEFINITION_SHAPE('',$,#408);
#400=PRODUCT_DEFINITION_SHAPE($,$,#16);
#401=PRODUCT_DEFINITION_SHAPE($,$,#17);
#402=SHAPE_REPRESENTATION('',(#180),#385);
#403=SHAPE_REPRESENTATION('',(#198),#386);
#404=SHAPE_REPRESENTATION('',(#207,#208,#209),#387);
#405=PRODUCT_DEFINITION_CONTEXT('3D Mechanical Parts',#413,'design');
#406=PRODUCT_DEFINITION('102556','102556',#409,#405);
#407=PRODUCT_DEFINITION('100116','100116',#410,#405);
#408=PRODUCT_DEFINITION('90988','90988',#411,#405);
#409=PRODUCT_DEFINITION_FORMATION('',$,#415);
#410=PRODUCT_DEFINITION_FORMATION('',$,#416);
#411=PRODUCT_DEFINITION_FORMATION('',$,#417);
#412=APPLICATION_PROTOCOL_DEFINITION('international standard',
'automotive_design',2009,#413);
#413=APPLICATION_CONTEXT(
'Core Data for Automotive Mechanical Design Process');
#414=PRODUCT_CONTEXT('3D Mechanical Parts',#413,'mechanical');
#415=PRODUCT('102556','102556',$,(#414));
#416=PRODUCT('100116','100116',$,(#414));
#417=PRODUCT('90988','90988',$,(#414));
#418=PRESENTATION_STYLE_ASSIGNMENT((#420));
#419=PRESENTATION_STYLE_ASSIGNMENT((#421));
#420=SURFACE_STYLE_USAGE(.BOTH.,#422);
#421=SURFACE_STYLE_USAGE(.BOTH.,#423);
#422=SURFACE_SIDE_STYLE($,(#424));
#423=SURFACE_SIDE_STYLE($,(#425));
#424=SURFACE_STYLE_FILL_AREA(#426);
#425=SURFACE_STYLE_FILL_AREA(#427);
#426=FILL_AREA_STYLE($,(#428));
#427=FILL_AREA_STYLE($,(#429));
#428=FILL_AREA_STYLE_COLOUR($,#430);
#429=FILL_AREA_STYLE_COLOUR($,#431);
#430=COLOUR_RGB('',0.949019607843137,0.92156862745098,0.929411764705882);
#431=COLOUR_RGB('',1.,1.,1.);
ENDSEC;
END-ISO-10303-21;
