ISO-10303-21;
HEADER;
/* Generated by software containing ST-Developer
 * from STEP Tools, Inc. (www.steptools.com) 
 */

FILE_DESCRIPTION(
/* description */ (''),
/* implementation_level */ '2;1');

FILE_NAME(
/* name */ 
'H:\\UHP\\!!! \X2\C11CBC84\X0\ \X2\D3F4B354\X0\ \X2\C815B9AC\X0\ \X2\C9C4D589\X0\ 
\X2\C911\X0\ !!!\\TEST\\8. \X2\AC1CC778BCC4\X0\ \X2\D3F4B354\X0\\\8. \X2\CD5CBCD1C8FC\X0\ 
\X2\C0ACC6D0\X0\\\\X2\C5C5BB34D611C870C804\X0\ 3D\\STEP\\SM8T6.stp',
/* time_stamp */ '2025-03-10T14:03:06+09:00',
/* author */ ('user'),
/* organization */ (''),
/* preprocessor_version */ 'ST-DEVELOPER v20',
/* originating_system */ 'Autodesk Inventor 2022',
/* authorisation */ '');

FILE_SCHEMA (('AUTOMOTIVE_DESIGN { 1 0 10303 214 3 1 1 }'));
ENDSEC;

DATA;
#10=MECHANICAL_DESIGN_GEOMETRIC_PRESENTATION_REPRESENTATION('',(#13),#420);
#11=SHAPE_REPRESENTATION_RELATIONSHIP('SRR','None',#427,#12);
#12=ADVANCED_BREP_SHAPE_REPRESENTATION('',(#14),#419);
#13=STYLED_ITEM('',(#436),#14);
#14=MANIFOLD_SOLID_BREP('\X2\C194B9ACB4DC\X0\1',#236);
#15=FACE_BOUND('',#48,.T.);
#16=FACE_BOUND('',#52,.T.);
#17=FACE_BOUND('',#54,.T.);
#18=FACE_BOUND('',#56,.T.);
#19=FACE_BOUND('',#59,.T.);
#20=FACE_BOUND('',#63,.T.);
#21=PLANE('',#269);
#22=PLANE('',#276);
#23=PLANE('',#277);
#24=PLANE('',#278);
#25=PLANE('',#279);
#26=PLANE('',#280);
#27=PLANE('',#281);
#28=PLANE('',#282);
#29=PLANE('',#283);
#30=FACE_OUTER_BOUND('',#44,.T.);
#31=FACE_OUTER_BOUND('',#45,.T.);
#32=FACE_OUTER_BOUND('',#46,.T.);
#33=FACE_OUTER_BOUND('',#47,.T.);
#34=FACE_OUTER_BOUND('',#49,.T.);
#35=FACE_OUTER_BOUND('',#50,.T.);
#36=FACE_OUTER_BOUND('',#51,.T.);
#37=FACE_OUTER_BOUND('',#53,.T.);
#38=FACE_OUTER_BOUND('',#55,.T.);
#39=FACE_OUTER_BOUND('',#57,.T.);
#40=FACE_OUTER_BOUND('',#58,.T.);
#41=FACE_OUTER_BOUND('',#60,.T.);
#42=FACE_OUTER_BOUND('',#61,.T.);
#43=FACE_OUTER_BOUND('',#62,.T.);
#44=EDGE_LOOP('',(#159,#160,#161,#162,#163));
#45=EDGE_LOOP('',(#164,#165,#166,#167,#168,#169,#170,#171));
#46=EDGE_LOOP('',(#172,#173,#174,#175));
#47=EDGE_LOOP('',(#176));
#48=EDGE_LOOP('',(#177));
#49=EDGE_LOOP('',(#178,#179,#180,#181));
#50=EDGE_LOOP('',(#182,#183,#184,#185));
#51=EDGE_LOOP('',(#186));
#52=EDGE_LOOP('',(#187));
#53=EDGE_LOOP('',(#188));
#54=EDGE_LOOP('',(#189));
#55=EDGE_LOOP('',(#190,#191,#192,#193));
#56=EDGE_LOOP('',(#194));
#57=EDGE_LOOP('',(#195,#196,#197,#198));
#58=EDGE_LOOP('',(#199,#200,#201,#202));
#59=EDGE_LOOP('',(#203));
#60=EDGE_LOOP('',(#204,#205,#206,#207));
#61=EDGE_LOOP('',(#208,#209,#210,#211));
#62=EDGE_LOOP('',(#212,#213,#214,#215));
#63=EDGE_LOOP('',(#216));
#64=CIRCLE('',#262,5.1);
#65=CIRCLE('',#264,5.1);
#66=CIRCLE('',#265,5.1);
#67=CIRCLE('',#267,6.35);
#68=CIRCLE('',#268,6.35);
#69=CIRCLE('',#271,6.35);
#70=CIRCLE('',#272,6.35);
#71=CIRCLE('',#274,6.35);
#72=CIRCLE('',#275,6.35);
#73=LINE('',#361,#91);
#74=LINE('',#366,#92);
#75=LINE('',#368,#93);
#76=LINE('',#374,#94);
#77=LINE('',#381,#95);
#78=LINE('',#387,#96);
#79=LINE('',#394,#97);
#80=LINE('',#396,#98);
#81=LINE('',#398,#99);
#82=LINE('',#399,#100);
#83=LINE('',#402,#101);
#84=LINE('',#404,#102);
#85=LINE('',#405,#103);
#86=LINE('',#408,#104);
#87=LINE('',#409,#105);
#88=LINE('',#412,#106);
#89=LINE('',#413,#107);
#90=LINE('',#415,#108);
#91=VECTOR('',#292,5.1);
#92=VECTOR('',#299,5.1);
#93=VECTOR('',#300,5.1);
#94=VECTOR('',#307,6.35);
#95=VECTOR('',#316,6.35);
#96=VECTOR('',#323,6.35);
#97=VECTOR('',#332,10.);
#98=VECTOR('',#333,10.);
#99=VECTOR('',#334,10.);
#100=VECTOR('',#335,10.);
#101=VECTOR('',#338,10.);
#102=VECTOR('',#339,10.);
#103=VECTOR('',#340,10.);
#104=VECTOR('',#343,10.);
#105=VECTOR('',#344,10.);
#106=VECTOR('',#347,10.);
#107=VECTOR('',#348,10.);
#108=VECTOR('',#351,10.);
#109=ELLIPSE('',#260,7.21248916810278,5.1);
#110=ELLIPSE('',#261,7.21248916810278,5.1);
#111=VERTEX_POINT('',#356);
#112=VERTEX_POINT('',#357);
#113=VERTEX_POINT('',#360);
#114=VERTEX_POINT('',#364);
#115=VERTEX_POINT('',#367);
#116=VERTEX_POINT('',#371);
#117=VERTEX_POINT('',#373);
#118=VERTEX_POINT('',#378);
#119=VERTEX_POINT('',#380);
#120=VERTEX_POINT('',#384);
#121=VERTEX_POINT('',#386);
#122=VERTEX_POINT('',#392);
#123=VERTEX_POINT('',#393);
#124=VERTEX_POINT('',#395);
#125=VERTEX_POINT('',#397);
#126=VERTEX_POINT('',#401);
#127=VERTEX_POINT('',#403);
#128=VERTEX_POINT('',#407);
#129=VERTEX_POINT('',#411);
#130=EDGE_CURVE('',#111,#112,#109,.T.);
#131=EDGE_CURVE('',#112,#111,#110,.T.);
#132=EDGE_CURVE('',#112,#113,#73,.T.);
#133=EDGE_CURVE('',#113,#113,#64,.T.);
#134=EDGE_CURVE('',#114,#114,#65,.T.);
#135=EDGE_CURVE('',#114,#111,#74,.T.);
#136=EDGE_CURVE('',#111,#115,#75,.T.);
#137=EDGE_CURVE('',#115,#115,#66,.T.);
#138=EDGE_CURVE('',#116,#116,#67,.T.);
#139=EDGE_CURVE('',#116,#117,#76,.T.);
#140=EDGE_CURVE('',#117,#117,#68,.T.);
#141=EDGE_CURVE('',#118,#118,#69,.T.);
#142=EDGE_CURVE('',#118,#119,#77,.T.);
#143=EDGE_CURVE('',#119,#119,#70,.T.);
#144=EDGE_CURVE('',#120,#120,#71,.T.);
#145=EDGE_CURVE('',#120,#121,#78,.T.);
#146=EDGE_CURVE('',#121,#121,#72,.T.);
#147=EDGE_CURVE('',#122,#123,#79,.T.);
#148=EDGE_CURVE('',#123,#124,#80,.T.);
#149=EDGE_CURVE('',#124,#125,#81,.T.);
#150=EDGE_CURVE('',#125,#122,#82,.T.);
#151=EDGE_CURVE('',#126,#123,#83,.T.);
#152=EDGE_CURVE('',#127,#126,#84,.T.);
#153=EDGE_CURVE('',#124,#127,#85,.T.);
#154=EDGE_CURVE('',#128,#127,#86,.T.);
#155=EDGE_CURVE('',#125,#128,#87,.T.);
#156=EDGE_CURVE('',#129,#128,#88,.T.);
#157=EDGE_CURVE('',#122,#129,#89,.T.);
#158=EDGE_CURVE('',#126,#129,#90,.T.);
#159=ORIENTED_EDGE('',*,*,#130,.F.);
#160=ORIENTED_EDGE('',*,*,#131,.F.);
#161=ORIENTED_EDGE('',*,*,#132,.T.);
#162=ORIENTED_EDGE('',*,*,#133,.F.);
#163=ORIENTED_EDGE('',*,*,#132,.F.);
#164=ORIENTED_EDGE('',*,*,#134,.F.);
#165=ORIENTED_EDGE('',*,*,#135,.T.);
#166=ORIENTED_EDGE('',*,*,#136,.T.);
#167=ORIENTED_EDGE('',*,*,#137,.F.);
#168=ORIENTED_EDGE('',*,*,#136,.F.);
#169=ORIENTED_EDGE('',*,*,#130,.T.);
#170=ORIENTED_EDGE('',*,*,#131,.T.);
#171=ORIENTED_EDGE('',*,*,#135,.F.);
#172=ORIENTED_EDGE('',*,*,#138,.F.);
#173=ORIENTED_EDGE('',*,*,#139,.T.);
#174=ORIENTED_EDGE('',*,*,#140,.F.);
#175=ORIENTED_EDGE('',*,*,#139,.F.);
#176=ORIENTED_EDGE('',*,*,#138,.T.);
#177=ORIENTED_EDGE('',*,*,#133,.T.);
#178=ORIENTED_EDGE('',*,*,#141,.F.);
#179=ORIENTED_EDGE('',*,*,#142,.T.);
#180=ORIENTED_EDGE('',*,*,#143,.F.);
#181=ORIENTED_EDGE('',*,*,#142,.F.);
#182=ORIENTED_EDGE('',*,*,#144,.F.);
#183=ORIENTED_EDGE('',*,*,#145,.T.);
#184=ORIENTED_EDGE('',*,*,#146,.F.);
#185=ORIENTED_EDGE('',*,*,#145,.F.);
#186=ORIENTED_EDGE('',*,*,#146,.T.);
#187=ORIENTED_EDGE('',*,*,#134,.T.);
#188=ORIENTED_EDGE('',*,*,#141,.T.);
#189=ORIENTED_EDGE('',*,*,#137,.T.);
#190=ORIENTED_EDGE('',*,*,#147,.T.);
#191=ORIENTED_EDGE('',*,*,#148,.T.);
#192=ORIENTED_EDGE('',*,*,#149,.T.);
#193=ORIENTED_EDGE('',*,*,#150,.T.);
#194=ORIENTED_EDGE('',*,*,#144,.T.);
#195=ORIENTED_EDGE('',*,*,#151,.F.);
#196=ORIENTED_EDGE('',*,*,#152,.F.);
#197=ORIENTED_EDGE('',*,*,#153,.F.);
#198=ORIENTED_EDGE('',*,*,#148,.F.);
#199=ORIENTED_EDGE('',*,*,#153,.T.);
#200=ORIENTED_EDGE('',*,*,#154,.F.);
#201=ORIENTED_EDGE('',*,*,#155,.F.);
#202=ORIENTED_EDGE('',*,*,#149,.F.);
#203=ORIENTED_EDGE('',*,*,#140,.T.);
#204=ORIENTED_EDGE('',*,*,#155,.T.);
#205=ORIENTED_EDGE('',*,*,#156,.F.);
#206=ORIENTED_EDGE('',*,*,#157,.F.);
#207=ORIENTED_EDGE('',*,*,#150,.F.);
#208=ORIENTED_EDGE('',*,*,#157,.T.);
#209=ORIENTED_EDGE('',*,*,#158,.F.);
#210=ORIENTED_EDGE('',*,*,#151,.T.);
#211=ORIENTED_EDGE('',*,*,#147,.F.);
#212=ORIENTED_EDGE('',*,*,#158,.T.);
#213=ORIENTED_EDGE('',*,*,#156,.T.);
#214=ORIENTED_EDGE('',*,*,#154,.T.);
#215=ORIENTED_EDGE('',*,*,#152,.T.);
#216=ORIENTED_EDGE('',*,*,#143,.T.);
#217=CYLINDRICAL_SURFACE('',#259,5.1);
#218=CYLINDRICAL_SURFACE('',#263,5.1);
#219=CYLINDRICAL_SURFACE('',#266,6.35);
#220=CYLINDRICAL_SURFACE('',#270,6.35);
#221=CYLINDRICAL_SURFACE('',#273,6.35);
#222=ADVANCED_FACE('',(#30),#217,.F.);
#223=ADVANCED_FACE('',(#31),#218,.F.);
#224=ADVANCED_FACE('',(#32),#219,.T.);
#225=ADVANCED_FACE('',(#33,#15),#21,.T.);
#226=ADVANCED_FACE('',(#34),#220,.T.);
#227=ADVANCED_FACE('',(#35),#221,.T.);
#228=ADVANCED_FACE('',(#36,#16),#22,.F.);
#229=ADVANCED_FACE('',(#37,#17),#23,.T.);
#230=ADVANCED_FACE('',(#38,#18),#24,.T.);
#231=ADVANCED_FACE('',(#39),#25,.T.);
#232=ADVANCED_FACE('',(#40,#19),#26,.T.);
#233=ADVANCED_FACE('',(#41),#27,.T.);
#234=ADVANCED_FACE('',(#42),#28,.T.);
#235=ADVANCED_FACE('',(#43,#20),#29,.T.);
#236=CLOSED_SHELL('',(#222,#223,#224,#225,#226,#227,#228,#229,#230,#231,
#232,#233,#234,#235));
#237=DERIVED_UNIT_ELEMENT(#240,1.);
#238=DERIVED_UNIT_ELEMENT(#422,-3.);
#239=DIMENSIONAL_EXPONENTS(1.,0.,0.,0.,0.,0.,0.);
#240=(
CONVERSION_BASED_UNIT('gram',#242)
MASS_UNIT()
NAMED_UNIT(#239)
);
#241=(
MASS_UNIT()
NAMED_UNIT(*)
SI_UNIT(.KILO.,.GRAM.)
);
#242=MASS_MEASURE_WITH_UNIT(MASS_MEASURE(0.001),#241);
#243=DERIVED_UNIT((#237,#238));
#244=MEASURE_REPRESENTATION_ITEM('density measure',
POSITIVE_RATIO_MEASURE(1.),#243);
#245=PROPERTY_DEFINITION_REPRESENTATION(#250,#247);
#246=PROPERTY_DEFINITION_REPRESENTATION(#251,#248);
#247=REPRESENTATION('material name',(#249),#419);
#248=REPRESENTATION('density',(#244),#419);
#249=DESCRIPTIVE_REPRESENTATION_ITEM('\X2\C77CBC18\X0\','\X2\C77CBC18\X0\');
#250=PROPERTY_DEFINITION('material property','material name',#429);
#251=PROPERTY_DEFINITION('material property','density of part',#429);
#252=DATE_TIME_ROLE('creation_date');
#253=APPLIED_DATE_AND_TIME_ASSIGNMENT(#254,#252,(#429));
#254=DATE_AND_TIME(#255,#256);
#255=CALENDAR_DATE(2024,9,4);
#256=LOCAL_TIME(0,0,0.,#257);
#257=COORDINATED_UNIVERSAL_TIME_OFFSET(0,0,.BEHIND.);
#258=AXIS2_PLACEMENT_3D('placement',#354,#284,#285);
#259=AXIS2_PLACEMENT_3D('',#355,#286,#287);
#260=AXIS2_PLACEMENT_3D('',#358,#288,#289);
#261=AXIS2_PLACEMENT_3D('',#359,#290,#291);
#262=AXIS2_PLACEMENT_3D('',#362,#293,#294);
#263=AXIS2_PLACEMENT_3D('',#363,#295,#296);
#264=AXIS2_PLACEMENT_3D('',#365,#297,#298);
#265=AXIS2_PLACEMENT_3D('',#369,#301,#302);
#266=AXIS2_PLACEMENT_3D('',#370,#303,#304);
#267=AXIS2_PLACEMENT_3D('',#372,#305,#306);
#268=AXIS2_PLACEMENT_3D('',#375,#308,#309);
#269=AXIS2_PLACEMENT_3D('',#376,#310,#311);
#270=AXIS2_PLACEMENT_3D('',#377,#312,#313);
#271=AXIS2_PLACEMENT_3D('',#379,#314,#315);
#272=AXIS2_PLACEMENT_3D('',#382,#317,#318);
#273=AXIS2_PLACEMENT_3D('',#383,#319,#320);
#274=AXIS2_PLACEMENT_3D('',#385,#321,#322);
#275=AXIS2_PLACEMENT_3D('',#388,#324,#325);
#276=AXIS2_PLACEMENT_3D('',#389,#326,#327);
#277=AXIS2_PLACEMENT_3D('',#390,#328,#329);
#278=AXIS2_PLACEMENT_3D('',#391,#330,#331);
#279=AXIS2_PLACEMENT_3D('',#400,#336,#337);
#280=AXIS2_PLACEMENT_3D('',#406,#341,#342);
#281=AXIS2_PLACEMENT_3D('',#410,#345,#346);
#282=AXIS2_PLACEMENT_3D('',#414,#349,#350);
#283=AXIS2_PLACEMENT_3D('',#416,#352,#353);
#284=DIRECTION('axis',(0.,0.,1.));
#285=DIRECTION('refdir',(1.,0.,0.));
#286=DIRECTION('center_axis',(0.,1.,0.));
#287=DIRECTION('ref_axis',(-1.,0.,0.));
#288=DIRECTION('center_axis',(0.,0.707106781186547,-0.707106781186548));
#289=DIRECTION('ref_axis',(0.,0.707106781186548,0.707106781186547));
#290=DIRECTION('center_axis',(0.,0.707106781186547,0.707106781186548));
#291=DIRECTION('ref_axis',(0.,-0.707106781186548,0.707106781186547));
#292=DIRECTION('',(0.,1.,0.));
#293=DIRECTION('center_axis',(0.,-1.,0.));
#294=DIRECTION('ref_axis',(-1.,0.,0.));
#295=DIRECTION('center_axis',(0.,0.,1.));
#296=DIRECTION('ref_axis',(1.,0.,0.));
#297=DIRECTION('center_axis',(0.,0.,1.));
#298=DIRECTION('ref_axis',(1.,0.,0.));
#299=DIRECTION('',(0.,0.,1.));
#300=DIRECTION('',(0.,0.,1.));
#301=DIRECTION('center_axis',(0.,0.,-1.));
#302=DIRECTION('ref_axis',(1.,0.,0.));
#303=DIRECTION('center_axis',(0.,1.,0.));
#304=DIRECTION('ref_axis',(-1.,0.,0.));
#305=DIRECTION('center_axis',(0.,1.,0.));
#306=DIRECTION('ref_axis',(-1.,0.,0.));
#307=DIRECTION('',(0.,-1.,0.));
#308=DIRECTION('center_axis',(0.,-1.,0.));
#309=DIRECTION('ref_axis',(-1.,0.,0.));
#310=DIRECTION('center_axis',(0.,1.,0.));
#311=DIRECTION('ref_axis',(0.,0.,1.));
#312=DIRECTION('center_axis',(0.,0.,1.));
#313=DIRECTION('ref_axis',(1.,0.,0.));
#314=DIRECTION('center_axis',(0.,0.,1.));
#315=DIRECTION('ref_axis',(1.,0.,0.));
#316=DIRECTION('',(0.,0.,-1.));
#317=DIRECTION('center_axis',(0.,0.,-1.));
#318=DIRECTION('ref_axis',(1.,0.,0.));
#319=DIRECTION('center_axis',(0.,0.,1.));
#320=DIRECTION('ref_axis',(1.,0.,0.));
#321=DIRECTION('center_axis',(0.,0.,1.));
#322=DIRECTION('ref_axis',(1.,0.,0.));
#323=DIRECTION('',(0.,0.,-1.));
#324=DIRECTION('center_axis',(0.,0.,-1.));
#325=DIRECTION('ref_axis',(1.,0.,0.));
#326=DIRECTION('center_axis',(0.,0.,1.));
#327=DIRECTION('ref_axis',(1.,0.,0.));
#328=DIRECTION('center_axis',(0.,0.,1.));
#329=DIRECTION('ref_axis',(1.,0.,0.));
#330=DIRECTION('center_axis',(0.,0.,-1.));
#331=DIRECTION('ref_axis',(-1.,0.,0.));
#332=DIRECTION('',(-1.,0.,0.));
#333=DIRECTION('',(0.,1.,0.));
#334=DIRECTION('',(1.,0.,0.));
#335=DIRECTION('',(0.,-1.,0.));
#336=DIRECTION('center_axis',(-1.,0.,0.));
#337=DIRECTION('ref_axis',(0.,-1.,0.));
#338=DIRECTION('',(0.,0.,-1.));
#339=DIRECTION('',(0.,-1.,0.));
#340=DIRECTION('',(0.,0.,1.));
#341=DIRECTION('center_axis',(0.,1.,0.));
#342=DIRECTION('ref_axis',(-1.,0.,0.));
#343=DIRECTION('',(-1.,0.,0.));
#344=DIRECTION('',(0.,0.,1.));
#345=DIRECTION('center_axis',(1.,0.,0.));
#346=DIRECTION('ref_axis',(0.,1.,0.));
#347=DIRECTION('',(0.,1.,0.));
#348=DIRECTION('',(0.,0.,1.));
#349=DIRECTION('center_axis',(0.,-1.,0.));
#350=DIRECTION('ref_axis',(1.,0.,0.));
#351=DIRECTION('',(1.,0.,0.));
#352=DIRECTION('center_axis',(0.,0.,1.));
#353=DIRECTION('ref_axis',(1.,0.,0.));
#354=CARTESIAN_POINT('',(0.,0.,0.));
#355=CARTESIAN_POINT('Origin',(0.,0.,0.));
#356=CARTESIAN_POINT('',(-5.1,0.,0.));
#357=CARTESIAN_POINT('',(5.1,0.,0.));
#358=CARTESIAN_POINT('Origin',(0.,0.,0.));
#359=CARTESIAN_POINT('Origin',(0.,0.,0.));
#360=CARTESIAN_POINT('',(5.1,13.5,6.2456986756515E-16));
#361=CARTESIAN_POINT('',(5.1,0.,-6.2456986756515E-16));
#362=CARTESIAN_POINT('Origin',(0.,13.5,0.));
#363=CARTESIAN_POINT('Origin',(0.,0.,0.));
#364=CARTESIAN_POINT('',(-5.1,-6.2456986756515E-16,-13.5));
#365=CARTESIAN_POINT('Origin',(0.,0.,-13.5));
#366=CARTESIAN_POINT('',(-5.1,-6.2456986756515E-16,0.));
#367=CARTESIAN_POINT('',(-5.1,6.2456986756515E-16,13.5));
#368=CARTESIAN_POINT('',(-5.1,-6.2456986756515E-16,0.));
#369=CARTESIAN_POINT('Origin',(0.,0.,13.5));
#370=CARTESIAN_POINT('Origin',(0.,0.,0.));
#371=CARTESIAN_POINT('',(6.35,13.5,-7.77650717458569E-16));
#372=CARTESIAN_POINT('Origin',(0.,13.5,0.));
#373=CARTESIAN_POINT('',(6.35,7.15,7.77650717458569E-16));
#374=CARTESIAN_POINT('',(6.35,0.,-7.77650717458569E-16));
#375=CARTESIAN_POINT('Origin',(0.,7.15,0.));
#376=CARTESIAN_POINT('Origin',(0.,13.5,0.));
#377=CARTESIAN_POINT('Origin',(0.,0.,0.));
#378=CARTESIAN_POINT('',(-6.35,-7.77650717458569E-16,13.5));
#379=CARTESIAN_POINT('Origin',(0.,0.,13.5));
#380=CARTESIAN_POINT('',(-6.35,7.77650717458569E-16,7.15));
#381=CARTESIAN_POINT('',(-6.35,-7.77650717458569E-16,0.));
#382=CARTESIAN_POINT('Origin',(0.,0.,7.15));
#383=CARTESIAN_POINT('Origin',(0.,0.,0.));
#384=CARTESIAN_POINT('',(-6.35,-7.77650717458569E-16,-7.15));
#385=CARTESIAN_POINT('Origin',(0.,0.,-7.15));
#386=CARTESIAN_POINT('',(-6.35,-7.77650717458569E-16,-13.5));
#387=CARTESIAN_POINT('',(-6.35,-7.77650717458569E-16,0.));
#388=CARTESIAN_POINT('Origin',(0.,0.,-13.5));
#389=CARTESIAN_POINT('Origin',(0.,0.,-13.5));
#390=CARTESIAN_POINT('Origin',(0.,0.,13.5));
#391=CARTESIAN_POINT('Origin',(0.,0.,-7.15));
#392=CARTESIAN_POINT('',(7.15,-7.15,-7.15));
#393=CARTESIAN_POINT('',(-7.15,-7.15,-7.15));
#394=CARTESIAN_POINT('',(-7.15,-7.15,-7.15));
#395=CARTESIAN_POINT('',(-7.15,7.15,-7.15));
#396=CARTESIAN_POINT('',(-7.15,7.15,-7.15));
#397=CARTESIAN_POINT('',(7.15,7.15,-7.15));
#398=CARTESIAN_POINT('',(7.15,7.15,-7.15));
#399=CARTESIAN_POINT('',(7.15,-7.15,-7.15));
#400=CARTESIAN_POINT('Origin',(-7.15,7.15,0.));
#401=CARTESIAN_POINT('',(-7.15,-7.15,7.15));
#402=CARTESIAN_POINT('',(-7.15,-7.15,0.));
#403=CARTESIAN_POINT('',(-7.15,7.15,7.15));
#404=CARTESIAN_POINT('',(-7.15,7.15,7.15));
#405=CARTESIAN_POINT('',(-7.15,7.15,0.));
#406=CARTESIAN_POINT('Origin',(7.15,7.15,0.));
#407=CARTESIAN_POINT('',(7.15,7.15,7.15));
#408=CARTESIAN_POINT('',(7.15,7.15,7.15));
#409=CARTESIAN_POINT('',(7.15,7.15,0.));
#410=CARTESIAN_POINT('Origin',(7.15,-7.15,0.));
#411=CARTESIAN_POINT('',(7.15,-7.15,7.15));
#412=CARTESIAN_POINT('',(7.15,-7.15,7.15));
#413=CARTESIAN_POINT('',(7.15,-7.15,0.));
#414=CARTESIAN_POINT('Origin',(-7.15,-7.15,0.));
#415=CARTESIAN_POINT('',(-7.15,-7.15,7.15));
#416=CARTESIAN_POINT('Origin',(0.,0.,7.15));
#417=UNCERTAINTY_MEASURE_WITH_UNIT(LENGTH_MEASURE(0.01),#421,
'DISTANCE_ACCURACY_VALUE',
'Maximum model space distance between geometric entities at asserted c
onnectivities');
#418=UNCERTAINTY_MEASURE_WITH_UNIT(LENGTH_MEASURE(0.01),#421,
'DISTANCE_ACCURACY_VALUE',
'Maximum model space distance between geometric entities at asserted c
onnectivities');
#419=(
GEOMETRIC_REPRESENTATION_CONTEXT(3)
GLOBAL_UNCERTAINTY_ASSIGNED_CONTEXT((#417))
GLOBAL_UNIT_ASSIGNED_CONTEXT((#421,#423,#424))
REPRESENTATION_CONTEXT('','3D')
);
#420=(
GEOMETRIC_REPRESENTATION_CONTEXT(3)
GLOBAL_UNCERTAINTY_ASSIGNED_CONTEXT((#418))
GLOBAL_UNIT_ASSIGNED_CONTEXT((#421,#423,#424))
REPRESENTATION_CONTEXT('','3D')
);
#421=(
LENGTH_UNIT()
NAMED_UNIT(*)
SI_UNIT(.MILLI.,.METRE.)
);
#422=(
LENGTH_UNIT()
NAMED_UNIT(*)
SI_UNIT(.CENTI.,.METRE.)
);
#423=(
NAMED_UNIT(*)
PLANE_ANGLE_UNIT()
SI_UNIT($,.RADIAN.)
);
#424=(
NAMED_UNIT(*)
SI_UNIT($,.STERADIAN.)
SOLID_ANGLE_UNIT()
);
#425=SHAPE_DEFINITION_REPRESENTATION(#426,#427);
#426=PRODUCT_DEFINITION_SHAPE('',$,#429);
#427=SHAPE_REPRESENTATION('',(#258),#419);
#428=PRODUCT_DEFINITION_CONTEXT('part definition',#433,'design');
#429=PRODUCT_DEFINITION('SM8T6','SM8T6',#430,#428);
#430=PRODUCT_DEFINITION_FORMATION('',$,#435);
#431=PRODUCT_RELATED_PRODUCT_CATEGORY('SM8T6','SM8T6',(#435));
#432=APPLICATION_PROTOCOL_DEFINITION('international standard',
'automotive_design',2009,#433);
#433=APPLICATION_CONTEXT(
'Core Data for Automotive Mechanical Design Process');
#434=PRODUCT_CONTEXT('part definition',#433,'mechanical');
#435=PRODUCT('SM8T6','SM8T6',$,(#434));
#436=PRESENTATION_STYLE_ASSIGNMENT((#437));
#437=SURFACE_STYLE_USAGE(.BOTH.,#440);
#438=SURFACE_STYLE_RENDERING_WITH_PROPERTIES($,#444,(#439));
#439=SURFACE_STYLE_TRANSPARENT(0.);
#440=SURFACE_SIDE_STYLE('',(#441,#438));
#441=SURFACE_STYLE_FILL_AREA(#442);
#442=FILL_AREA_STYLE('',(#443));
#443=FILL_AREA_STYLE_COLOUR('',#444);
#444=COLOUR_RGB('',0.745098039215686,0.737254901960784,0.729411764705882);
ENDSEC;
END-ISO-10303-21;
