ISO-10303-21;
HEADER;
/****************************************************************
 * Generated by software with PDE/Lib inside                    *
 * PDElib Version v51a, created Thu 12/14/2006                  *
 * International Technegroup Inc. (www.iti-oh.com)              *
 ****************************************************************/
FILE_DESCRIPTION((''),'2;1');
FILE_NAME('T:\\Arbeitspl\S\dtze\\Aushilfe\\KPeters\\3D\\Steps 08_10\\47220\\47220050X.stp','2010-08-17T10:31:12',('thilbrands'),(''),'Autodesk Inventor 2008','Autodesk Inventor 2008','');
FILE_SCHEMA(('AUTOMOTIVE_DESIGN { 1 0 10303 214 1 1 1 1 }'));
ENDSEC;
DATA;
#5=APPLICATION_CONTEXT('automotive design');
#6=APPLICATION_PROTOCOL_DEFINITION('International Standard','automotive_design',2001,#5);
#7=PRODUCT_CONTEXT('',#5,'mechanical');
#8=PRODUCT('472200101','472200101',$,(#7));
#9=PRODUCT_RELATED_PRODUCT_CATEGORY('part',$,(#8));
#10=PRODUCT_DEFINITION_FORMATION('',$,#8);
#11=PRODUCT_DEFINITION_CONTEXT('part definition',#5,'design');
#12=PRODUCT_DEFINITION('',$,#10,#11);
#18=(NAMED_UNIT(*)PLANE_ANGLE_UNIT()SI_UNIT($,.RADIAN.));
#19=DIMENSIONAL_EXPONENTS(0.0,0.0,0.0,0.0,0.0,0.0,0.0);
#20=PLANE_ANGLE_MEASURE_WITH_UNIT(PLANE_ANGLE_MEASURE(0.017453292500000),#18);
#24=(CONVERSION_BASED_UNIT('DEGREE',#20)NAMED_UNIT(#19)PLANE_ANGLE_UNIT());
#28=(NAMED_UNIT(*)SI_UNIT($,.STERADIAN.)SOLID_ANGLE_UNIT());
#32=(LENGTH_UNIT()NAMED_UNIT(*)SI_UNIT(.MILLI.,.METRE.));
#34=UNCERTAINTY_MEASURE_WITH_UNIT(LENGTH_MEASURE(0.010000000000000),#32,'DISTANCE_ACCURACY_VALUE','');
#36=(GEOMETRIC_REPRESENTATION_CONTEXT(3)GLOBAL_UNCERTAINTY_ASSIGNED_CONTEXT((#34))GLOBAL_UNIT_ASSIGNED_CONTEXT((#24,#28,#32))REPRESENTATION_CONTEXT('None','None'));
#37=AXIS2_PLACEMENT_3D('',#38,#39,#40);
#38=CARTESIAN_POINT('',(0.0,0.0,0.0));
#39=DIRECTION('',(0.0,0.0,1.0));
#40=DIRECTION('',(1.0,0.0,0.0));
#41=SHAPE_REPRESENTATION('',(#37),#36);
#42=PRODUCT_DEFINITION_SHAPE('','',#12);
#43=SHAPE_DEFINITION_REPRESENTATION(#42,#41);
#49=(NAMED_UNIT(*)PLANE_ANGLE_UNIT()SI_UNIT($,.RADIAN.));
#50=DIMENSIONAL_EXPONENTS(0.0,0.0,0.0,0.0,0.0,0.0,0.0);
#51=PLANE_ANGLE_MEASURE_WITH_UNIT(PLANE_ANGLE_MEASURE(0.017453292500000),#49);
#55=(CONVERSION_BASED_UNIT('DEGREE',#51)NAMED_UNIT(#50)PLANE_ANGLE_UNIT());
#59=(NAMED_UNIT(*)SI_UNIT($,.STERADIAN.)SOLID_ANGLE_UNIT());
#63=(LENGTH_UNIT()NAMED_UNIT(*)SI_UNIT(.MILLI.,.METRE.));
#65=UNCERTAINTY_MEASURE_WITH_UNIT(LENGTH_MEASURE(0.000001000000000),#63,'DISTANCE_ACCURACY_VALUE','');
#67=(GEOMETRIC_REPRESENTATION_CONTEXT(3)GLOBAL_UNCERTAINTY_ASSIGNED_CONTEXT((#65))GLOBAL_UNIT_ASSIGNED_CONTEXT((#55,#59,#63))REPRESENTATION_CONTEXT('','3D'));
#68=CARTESIAN_POINT('',(0.0,0.0,-140.0));
#69=DIRECTION('',(0.0,0.0,1.0));
#70=DIRECTION('',(1.0,0.0,0.0));
#71=AXIS2_PLACEMENT_3D('',#68,#69,#70);
#72=CYLINDRICAL_SURFACE('',#71,25.0);
#73=CARTESIAN_POINT('',(-1.530758E-015,25.0,-4.595662E-015));
#74=VERTEX_POINT('',#73);
#75=CARTESIAN_POINT('',(-1.530758E-015,-25.0,-4.595662E-015));
#76=VERTEX_POINT('',#75);
#77=CARTESIAN_POINT('',(-1.530758E-015,25.0,-4.595662E-015));
#78=CARTESIAN_POINT('',(-1.546270E-015,25.0,-0.122257176431653));
#79=CARTESIAN_POINT('',(0.000160144509647,25.000000001538755,-0.244514158284056));
#80=CARTESIAN_POINT('',(0.000480431808713,24.999999995383707,-0.366770915173339));
#81=CARTESIAN_POINT('',(0.015630676319057,24.999999704237329,-6.149765636800811));
#82=CARTESIAN_POINT('',(0.388581055633166,25.005055716979449,-11.677914895586238));
#83=CARTESIAN_POINT('',(1.023506109687888,24.979039918368187,-16.928724426625280));
#84=CARTESIAN_POINT('',(1.754473319417541,24.949088831073208,-22.973799459047424));
#85=CARTESIAN_POINT('',(2.832384362157161,24.872834091461726,-28.651438146014698));
#86=CARTESIAN_POINT('',(4.110993570509732,24.659678259523737,-33.927543379129638));
#87=CARTESIAN_POINT('',(4.660182434625362,24.568123460405346,-36.193738727169034));
#88=CARTESIAN_POINT('',(5.246420195421129,24.451406445444047,-38.385828413154790));
#89=CARTESIAN_POINT('',(5.858339870646558,24.303906146132004,-40.501051391056954));
#90=CARTESIAN_POINT('',(6.452748844021721,24.160626717415646,-42.555745119104166));
#91=CARTESIAN_POINT('',(7.073922058802757,23.987780633371756,-44.546887388718311));
#92=CARTESIAN_POINT('',(7.714827194958631,23.779853686512176,-46.477431239133878));
#93=CARTESIAN_POINT('',(9.073625881042210,23.339022670726006,-50.570424569013227));
#94=CARTESIAN_POINT('',(10.519119574020593,22.740200619721907,-54.385811999269592));
#95=CARTESIAN_POINT('',(11.979560059428229,21.942883602265034,-57.916118798136893));
#96=CARTESIAN_POINT('',(12.752443690702352,21.520933322273503,-59.784401939752698));
#97=CARTESIAN_POINT('',(13.529640138253573,21.043622140394223,-61.572835686784494));
#98=CARTESIAN_POINT('',(14.301339015385132,20.505406661830019,-63.280130564876671));
#99=CARTESIAN_POINT('',(14.709471329689597,20.220757901322045,-64.183076299858129));
#100=CARTESIAN_POINT('',(15.116859213599609,19.918445865386591,-65.064984594875682));
#101=CARTESIAN_POINT('',(15.519613627231955,19.599530424513652,-65.920344474410541));
#102=CARTESIAN_POINT('',(17.044684174205155,18.391924674240546,-69.159251647584213));
#103=CARTESIAN_POINT('',(18.458128687963189,16.980116756792146,-71.928482947994169));
#104=CARTESIAN_POINT('',(19.694204686847637,15.399295495331875,-74.258853427166102));
#105=CARTESIAN_POINT('',(20.651382404126160,14.175158073494156,-76.063417788645594));
#106=CARTESIAN_POINT('',(21.504563091342618,12.846277426798306,-77.607416441005753));
#107=CARTESIAN_POINT('',(22.224704956226340,11.448252688016996,-78.885470067328470));
#108=CARTESIAN_POINT('',(22.899837954554830,10.137604495409519,-80.083645342006022));
#109=CARTESIAN_POINT('',(23.459532912963557,8.765551976602936,-81.050742337800301));
#110=CARTESIAN_POINT('',(23.894245983761621,7.352891191054818,-81.794797361771458));
#111=CARTESIAN_POINT('',(24.056049469898181,6.827088184003588,-82.071740257771651));
#112=CARTESIAN_POINT('',(24.202023139916690,6.291493786424070,-82.320198840965588));
#113=CARTESIAN_POINT('',(24.332075386770704,5.740218408084063,-82.540784514661581));
#114=CARTESIAN_POINT('',(24.558138225597780,4.781966013237681,-82.924216749064072));
#115=CARTESIAN_POINT('',(24.734114314646661,3.782659968066652,-83.220123279965520));
#116=CARTESIAN_POINT('',(24.848580579382382,2.747370231683514,-83.412244678027150));
#117=CARTESIAN_POINT('',(24.918272430542668,2.117042524368466,-83.529216223393206));
#118=CARTESIAN_POINT('',(24.964612954795832,1.475774819980470,-83.606775509543127));
#119=CARTESIAN_POINT('',(24.986019248820774,0.835967761075512,-83.642605110492696));
#120=CARTESIAN_POINT('',(25.012088087034076,0.056803152438002,-83.686238822582851));
#121=CARTESIAN_POINT('',(25.001716374247174,-0.724611899728982,-83.668911748092228));
#122=CARTESIAN_POINT('',(24.954671318974761,-1.504785487017456,-83.590118849735688));
#123=CARTESIAN_POINT('',(24.917899689482756,-2.114589300087751,-83.528532286638026));
#124=CARTESIAN_POINT('',(24.858792264297318,-2.719580544273331,-83.429487917664616));
#125=CARTESIAN_POINT('',(24.779814392363832,-3.310709694310003,-83.296746814397707));
#126=CARTESIAN_POINT('',(24.636122277367594,-4.386208384325785,-83.055238029615296));
#127=CARTESIAN_POINT('',(24.426179193584950,-5.423724460401387,-82.701460156387185));
#128=CARTESIAN_POINT('',(24.162555122418674,-6.416457742094085,-82.252753353776740));
#129=CARTESIAN_POINT('',(24.010455344194444,-6.989222252228792,-81.993868780517474));
#130=CARTESIAN_POINT('',(23.838179522496798,-7.555932246813318,-81.699447709123902));
#131=CARTESIAN_POINT('',(23.645863637760186,-8.116226513870265,-81.368555465688672));
#132=CARTESIAN_POINT('',(23.289896652472635,-9.153302891577260,-80.756090642452719));
#133=CARTESIAN_POINT('',(22.865500436990395,-10.167133678062388,-80.019295675566056));
#134=CARTESIAN_POINT('',(22.376655600832724,-11.148331001621795,-79.154681278072005));
#135=CARTESIAN_POINT('',(22.143422977709218,-11.616469782373306,-78.742165344584990));
#136=CARTESIAN_POINT('',(21.895544793753505,-12.077180322305352,-78.300539949943854));
#137=CARTESIAN_POINT('',(21.633602407235074,-12.529455171142633,-77.829356119820389));
#138=CARTESIAN_POINT('',(21.448256838180246,-12.849476456514228,-77.495955190385388));
#139=CARTESIAN_POINT('',(21.256726766032727,-13.163620980087854,-77.149259412781788));
#140=CARTESIAN_POINT('',(21.062994256286803,-13.466635547144996,-76.796083179810054));
#141=CARTESIAN_POINT('',(20.045443136674340,-15.058174377526381,-74.941077678914965));
#142=CARTESIAN_POINT('',(18.943234159232514,-16.388232903609953,-72.861202603849321));
#143=CARTESIAN_POINT('',(17.854266818234649,-17.499290167983538,-70.704983622837375));
#144=CARTESIAN_POINT('',(17.543652869650426,-17.816204983513295,-70.089949850483237));
#145=CARTESIAN_POINT('',(17.235061923319311,-18.114530623161585,-69.471065637197114));
#146=CARTESIAN_POINT('',(16.919637065147846,-18.404507099720846,-68.829487708695012));
#147=CARTESIAN_POINT('',(15.167756508679100,-20.015046465775917,-65.266141734893125));
#148=CARTESIAN_POINT('',(13.265712668686811,-21.297891036167737,-61.129308606226353));
#149=CARTESIAN_POINT('',(11.359444666169477,-22.270227140202987,-56.397203002697353));
#150=CARTESIAN_POINT('',(10.841241786676916,-22.534548509643308,-55.110820003783580));
#151=CARTESIAN_POINT('',(10.321771672625818,-22.776439524739303,-53.776736393305725));
#152=CARTESIAN_POINT('',(9.813693500828929,-22.993290757779498,-52.419788059778547));
#153=CARTESIAN_POINT('',(7.041282103130909,-24.176574873212509,-45.015378197703214));
#154=CARTESIAN_POINT('',(4.548156585813077,-24.648122453665785,-36.794964863434885));
#155=CARTESIAN_POINT('',(2.765936919396583,-24.846520741502601,-27.829163433905890));
#156=CARTESIAN_POINT('',(2.530570346905130,-24.872721958937383,-26.645106276490331));
#157=CARTESIAN_POINT('',(2.307778483296388,-24.894123342088470,-25.448143284983701));
#158=CARTESIAN_POINT('',(2.100623062492186,-24.911591333138993,-24.252308292156759));
#159=CARTESIAN_POINT('',(1.229912954466407,-24.985012324564416,-19.226006727161764));
#160=CARTESIAN_POINT('',(0.622566615246003,-24.994429095191624,-14.157478487807463));
#161=CARTESIAN_POINT('',(0.292324171499631,-24.998290873152847,-9.047141428096078));
#162=CARTESIAN_POINT('',(0.106197934980843,-25.000467389865960,-6.166930775957527));
#163=CARTESIAN_POINT('',(0.008095293732847,-24.999999849046826,-3.273437291700867));
#164=CARTESIAN_POINT('',(0.000480431808725,-24.999999995383703,-0.366770915173338));
#165=CARTESIAN_POINT('',(0.000160144509693,-25.000000001538755,-0.244514158294499));
#166=CARTESIAN_POINT('',(-1.546270E-015,-25.0,-0.122257176421209));
#167=CARTESIAN_POINT('',(-1.530758E-015,-25.0,-4.595662E-015));
#168=B_SPLINE_CURVE_WITH_KNOTS('',3,(#77,#78,#79,#80,#81,#82,#83,#84,#85,#86,#87,#88,#89,#90,#91,#92,#93,#94,#95,#96,#97,#98,#99,#100,#101,#102,#103,#104,#105,#106,#107,#108,#109,#110,#111,#112,#113,#114,#115,#116,#117,#118,#119,#120,#121,#122,#123,#124,#125,#126,#127,#128,#129,#130,#131,#132,#133,#134,#135,#136,#137,#138,#139,#140,#141,#142,#143,#144,#145,#146,#147,#148,#149,#150,#151,#152,#153,#154,#155,#156,#157,#158,#159,#160,#161,#162,#163,#164,#165,#166,#167),.UNSPECIFIED.,.F.,.U.,(4,3,3,3,3,3,3,3,3,3,3,3,3,3,3,3,3,3,3,3,3,3,3,3,3,3,3,3,3,3,4),(-22.782142289302126,-22.757368787061981,-21.585531447873258,-20.236435732381178,-19.656971468605864,-19.094089162179962,-17.900708589543715,-17.269156451892826,-16.935144257263900,-15.670373113567747,-14.690974793969763,-13.772788869346654,-13.431033137795273,-12.836977496860037,-12.475291567782397,-12.034826162693243,-11.690547033118451,-11.064166566456484,-10.702771912160358,-10.033848667650336,-9.714698885458429,-9.488874425429998,-8.302765122251248,-7.964442676533791,-6.085388127994769,-5.574582996454686,-2.787291498227343,-2.419191393153636,-0.872002905356515,0.0,0.036677152926361),.UNSPECIFIED.);
#169=EDGE_CURVE('',#74,#76,#168,.T.);
#170=ORIENTED_EDGE('',*,*,#169,.F.);
#171=CARTESIAN_POINT('',(0.0,0.0,-1.378670E-014));
#172=DIRECTION('',(0.0,0.0,-1.0));
#173=DIRECTION('',(-1.0,0.0,0.0));
#174=AXIS2_PLACEMENT_3D('',#171,#172,#173);
#175=CIRCLE('',#174,25.0);
#176=EDGE_CURVE('',#76,#74,#175,.T.);
#177=ORIENTED_EDGE('',*,*,#176,.F.);
#178=EDGE_LOOP('',(#170,#177));
#179=FACE_OUTER_BOUND('',#178,.T.);
#180=CARTESIAN_POINT('',(-25.0,3.061617E-015,-140.0));
#181=VERTEX_POINT('',#180);
#182=CARTESIAN_POINT('',(0.0,0.0,-140.0));
#183=DIRECTION('',(0.0,0.0,1.0));
#184=DIRECTION('',(1.0,0.0,0.0));
#185=AXIS2_PLACEMENT_3D('',#182,#183,#184);
#186=CIRCLE('',#185,25.0);
#187=EDGE_CURVE('',#181,#181,#186,.T.);
#188=ORIENTED_EDGE('',*,*,#187,.F.);
#189=EDGE_LOOP('',(#188));
#190=FACE_BOUND('',#189,.T.);
#191=ADVANCED_FACE('',(#179,#190),#72,.F.);
#192=CARTESIAN_POINT('',(70.0,0.0,-8.881784E-015));
#193=DIRECTION('',(0.0,1.0,0.0));
#194=DIRECTION('',(0.0,0.0,1.0));
#195=AXIS2_PLACEMENT_3D('',#192,#193,#194);
#196=TOROIDAL_SURFACE('',#195,70.0,25.0);
#197=CARTESIAN_POINT('',(69.999999999999986,3.061617E-015,-45.000000000000007));
#198=VERTEX_POINT('',#197);
#199=CARTESIAN_POINT('',(70.0,0.0,-70.000000000000014));
#200=DIRECTION('',(-1.0,0.0,0.0));
#201=DIRECTION('',(0.0,0.0,-1.0));
#202=AXIS2_PLACEMENT_3D('',#199,#200,#201);
#203=CIRCLE('',#202,25.0);
#204=EDGE_CURVE('',#198,#198,#203,.T.);
#205=ORIENTED_EDGE('',*,*,#204,.F.);
#206=EDGE_LOOP('',(#205));
#207=FACE_OUTER_BOUND('',#206,.T.);
#208=ORIENTED_EDGE('',*,*,#169,.T.);
#209=CARTESIAN_POINT('',(0.0,0.0,-1.378670E-014));
#210=DIRECTION('',(0.0,0.0,-1.0));
#211=DIRECTION('',(-1.0,0.0,0.0));
#212=AXIS2_PLACEMENT_3D('',#209,#210,#211);
#213=CIRCLE('',#212,25.0);
#214=EDGE_CURVE('',#74,#76,#213,.T.);
#215=ORIENTED_EDGE('',*,*,#214,.F.);
#216=EDGE_LOOP('',(#208,#215));
#217=FACE_BOUND('',#216,.T.);
#218=ADVANCED_FACE('',(#207,#217),#196,.F.);
#219=CARTESIAN_POINT('',(0.0,0.0,-140.0));
#220=DIRECTION('',(0.0,0.0,1.0));
#221=DIRECTION('',(-1.0,0.0,0.0));
#222=AXIS2_PLACEMENT_3D('',#219,#220,#221);
#223=CYLINDRICAL_SURFACE('',#222,26.500000000000000);
#224=CARTESIAN_POINT('',(26.500000000000000,3.245314E-015,-140.0));
#225=VERTEX_POINT('',#224);
#226=CARTESIAN_POINT('',(0.0,0.0,-140.0));
#227=DIRECTION('',(0.0,0.0,-1.0));
#228=DIRECTION('',(-1.0,0.0,0.0));
#229=AXIS2_PLACEMENT_3D('',#226,#227,#228);
#230=CIRCLE('',#229,26.500000000000000);
#231=EDGE_CURVE('',#225,#225,#230,.T.);
#232=ORIENTED_EDGE('',*,*,#231,.F.);
#233=EDGE_LOOP('',(#232));
#234=FACE_OUTER_BOUND('',#233,.T.);
#235=CARTESIAN_POINT('',(-1.622603E-015,-26.500000000000000,-4.595662E-015));
#236=VERTEX_POINT('',#235);
#237=CARTESIAN_POINT('',(-1.622603E-015,26.500000000000000,-4.595662E-015));
#238=VERTEX_POINT('',#237);
#239=CARTESIAN_POINT('',(-1.622603E-015,-26.500000000000000,-4.595662E-015));
#240=CARTESIAN_POINT('',(-1.638369E-015,-26.500000000000000,-0.124256755525275));
#241=CARTESIAN_POINT('',(0.000165426034014,-26.500000001548976,-0.248513378882310));
#242=CARTESIAN_POINT('',(0.000496275920873,-26.499999995353019,-0.372769693941217));
#243=CARTESIAN_POINT('',(0.013639296777639,-26.499999749218549,-5.308854319952041));
#244=CARTESIAN_POINT('',(0.287737480780086,-26.503608735579864,-10.207833299013704));
#245=CARTESIAN_POINT('',(0.811008128708210,-26.487587013829121,-15.069249352184144));
#246=CARTESIAN_POINT('',(1.100566388139449,-26.478721196719743,-17.759373815118799));
#247=CARTESIAN_POINT('',(1.466424962469413,-26.463075274719149,-20.438012593176438));
#248=CARTESIAN_POINT('',(1.906592027027725,-26.431324349008211,-23.105102630539527));
#249=CARTESIAN_POINT('',(2.108122792122001,-26.416787167864506,-24.326231467937806));
#250=CARTESIAN_POINT('',(2.325230643663163,-26.398823129327553,-25.544938412162601));
#251=CARTESIAN_POINT('',(2.557721277059344,-26.376278393072777,-26.761202468809572));
#252=CARTESIAN_POINT('',(2.792736179170829,-26.353488877182830,-27.990672121152564));
#253=CARTESIAN_POINT('',(3.041770544704189,-26.326167026294531,-29.208635445487712));
#254=CARTESIAN_POINT('',(3.303226917688953,-26.293320291097796,-30.412226767418851));
#255=CARTESIAN_POINT('',(5.081754397620403,-26.069884080664224,-38.599520946651921));
#256=CARTESIAN_POINT('',(7.441415843505562,-25.589486112257255,-46.162600718069250));
#257=CARTESIAN_POINT('',(10.049787163540989,-24.520435925315983,-53.046587126708516));
#258=CARTESIAN_POINT('',(10.579012749263855,-24.303530952084085,-54.443313778023978));
#259=CARTESIAN_POINT('',(11.118538745745065,-24.062406575696272,-55.812069909201320));
#260=CARTESIAN_POINT('',(11.665674621196935,-23.794159695865744,-57.152330608078820));
#261=CARTESIAN_POINT('',(12.094595728802572,-23.583870526445732,-58.203013133636240));
#262=CARTESIAN_POINT('',(12.525410640994478,-23.358200210257635,-59.229281990075542));
#263=CARTESIAN_POINT('',(12.954056970500600,-23.118010468139872,-60.225708395503062));
#264=CARTESIAN_POINT('',(14.072118874420079,-22.491510293313855,-62.824742441243146));
#265=CARTESIAN_POINT('',(15.180095760034778,-21.763571353513743,-65.233176983124920));
#266=CARTESIAN_POINT('',(16.251073341306018,-20.932095338391061,-67.455915497202199));
#267=CARTESIAN_POINT('',(16.800970549755185,-20.505171052015548,-68.597188410266085));
#268=CARTESIAN_POINT('',(17.341196246818360,-20.051008054996249,-69.689486413305630));
#269=CARTESIAN_POINT('',(17.868575454866004,-19.569466298643917,-70.733309885530474));
#270=CARTESIAN_POINT('',(18.178574722275108,-19.286410786750032,-71.346880740725993));
#271=CARTESIAN_POINT('',(18.484140932719971,-18.993895559864249,-71.943700385973216));
#272=CARTESIAN_POINT('',(18.784670107264478,-18.691874410054336,-72.523841804154685));
#273=CARTESIAN_POINT('',(19.038463176777086,-18.436821386386470,-73.013763860789709));
#274=CARTESIAN_POINT('',(19.292863361018483,-18.170777960616618,-73.499885489900151));
#275=CARTESIAN_POINT('',(19.547076449510566,-17.893065759589366,-73.980952993746712));
#276=CARTESIAN_POINT('',(20.415422044726522,-16.944451477255694,-75.624191941216196));
#277=CARTESIAN_POINT('',(21.281180795123557,-15.860681816983751,-77.206557948075343));
#278=CARTESIAN_POINT('',(22.099670553226311,-14.623767005763657,-78.663255430368309));
#279=CARTESIAN_POINT('',(22.368398439425359,-14.217661126811731,-79.141520712704221));
#280=CARTESIAN_POINT('',(22.631982979153484,-13.795027019716830,-79.606260691139582));
#281=CARTESIAN_POINT('',(22.888671477378544,-13.355100823304845,-80.055156071710925));
#282=CARTESIAN_POINT('',(23.113641681911908,-12.969535100373179,-80.448582681315656));
#283=CARTESIAN_POINT('',(23.330245982782301,-12.575780563785306,-80.824469632349633));
#284=CARTESIAN_POINT('',(23.536086681841063,-12.177956466700959,-81.179457197714115));
#285=CARTESIAN_POINT('',(24.264363639712371,-10.770430527869108,-82.435424872561470));
#286=CARTESIAN_POINT('',(24.865879666534742,-9.297917127271802,-83.444863798999634));
#287=CARTESIAN_POINT('',(25.331455080829521,-7.782504962280216,-84.218806822658493));
#288=CARTESIAN_POINT('',(25.574458441533281,-6.991547713169204,-84.622760188682363));
#289=CARTESIAN_POINT('',(25.780167331287778,-6.192426598325556,-84.961907418005580));
#290=CARTESIAN_POINT('',(25.951151491502380,-5.365420418298454,-85.242726479276030));
#291=CARTESIAN_POINT('',(26.167149061825253,-4.320696010472273,-85.597474163848915));
#292=CARTESIAN_POINT('',(26.325192600691945,-3.237914337489371,-85.854966058146346));
#293=CARTESIAN_POINT('',(26.414779489488570,-2.123540562761628,-86.000803816341161));
#294=CARTESIAN_POINT('',(26.468155139661839,-1.459599381623353,-86.087693597513621));
#295=CARTESIAN_POINT('',(26.496703221448399,-0.787900289325887,-86.134063680850559));
#296=CARTESIAN_POINT('',(26.499728193779998,-0.120023563442846,-86.138980109230445));
#297=CARTESIAN_POINT('',(26.503927363284422,0.807101471966394,-86.145804937314949));
#298=CARTESIAN_POINT('',(26.459413854670814,1.732317680136325,-86.073564426882967));
#299=CARTESIAN_POINT('',(26.367120698013068,2.650461487441544,-85.923185435851138));
#300=CARTESIAN_POINT('',(26.299821555132660,3.319961735458140,-85.813530748871557));
#301=CARTESIAN_POINT('',(26.208148944094074,3.975742346951346,-85.663972541270894));
#302=CARTESIAN_POINT('',(26.094763667202976,4.616633963487193,-85.478265230506608));
#303=CARTESIAN_POINT('',(25.922437261330270,5.590680610986636,-85.196021589305886));
#304=CARTESIAN_POINT('',(25.699918818878018,6.530365221667037,-84.830230741364232));
#305=CARTESIAN_POINT('',(25.436622224907126,7.431571152008233,-84.393448933990101));
#306=CARTESIAN_POINT('',(25.291718093131230,7.927545903971091,-84.153067971902715));
#307=CARTESIAN_POINT('',(25.134256554008584,8.413205452341899,-83.890851187936178));
#308=CARTESIAN_POINT('',(24.962135246020072,8.896167936780559,-83.602618792030796));
#309=CARTESIAN_POINT('',(24.371916498063051,10.552287775787507,-82.614245151253655));
#310=CARTESIAN_POINT('',(23.616244691962404,12.149190433574972,-81.333069744230102));
#311=CARTESIAN_POINT('',(22.712063555544312,13.653284185459407,-79.745707066602691));
#312=CARTESIAN_POINT('',(22.101242374881807,14.669377404338865,-78.673361376303276));
#313=CARTESIAN_POINT('',(21.423360427744395,15.641673514295576,-77.461946130250681));
#314=CARTESIAN_POINT('',(20.691468220582561,16.556362610085039,-76.115774329393247));
#315=CARTESIAN_POINT('',(19.769653553672800,17.708409067077458,-74.420277508867173));
#316=CARTESIAN_POINT('',(18.759939063039770,18.772314342969842,-72.507659761800554));
#317=CARTESIAN_POINT('',(17.684525638184155,19.735945707069810,-70.368083522940751));
#318=CARTESIAN_POINT('',(17.168154630554032,20.198643388690343,-69.340743606192135));
#319=CARTESIAN_POINT('',(16.636732742515683,20.638240687969837,-68.261040457909033));
#320=CARTESIAN_POINT('',(16.093311305833456,21.053629882125623,-67.127692986079666));
#321=CARTESIAN_POINT('',(15.664004021887539,21.381790669841813,-66.232339413227223));
#322=CARTESIAN_POINT('',(15.230971365556286,21.691947061672639,-65.311261848344671));
#323=CARTESIAN_POINT('',(14.797478927837439,21.983735291806234,-64.368424711146105));
#324=CARTESIAN_POINT('',(13.043162160998582,23.164583998610194,-60.552821821070864));
#325=CARTESIAN_POINT('',(11.271001870429778,24.051659073883116,-56.361523185588645));
#326=CARTESIAN_POINT('',(9.585708371014704,24.705549883090203,-51.807319404540870));
#327=CARTESIAN_POINT('',(8.398858481550505,25.166045479197614,-48.600070188893866));
#328=CARTESIAN_POINT('',(7.255347783124462,25.510757580257234,-45.212783297739968));
#329=CARTESIAN_POINT('',(6.195230043170414,25.765657855218809,-41.649302660281329));
#330=CARTESIAN_POINT('',(5.661115474513999,25.894083166182291,-39.853929512696602));
#331=CARTESIAN_POINT('',(5.145433365306760,26.000441373987517,-38.004501779421673));
#332=CARTESIAN_POINT('',(4.654749049059304,26.087991706727472,-36.101658323913711));
#333=CARTESIAN_POINT('',(3.126512679349677,26.360667229957162,-30.175252122854936));
#334=CARTESIAN_POINT('',(1.841417331829259,26.448996746299134,-23.734128147651820));
#335=CARTESIAN_POINT('',(1.011211571221052,26.480699597220397,-16.826741810044403));
#336=CARTESIAN_POINT('',(0.383239594268594,26.504679799373498,-11.601958678180830));
#337=CARTESIAN_POINT('',(0.015773191710568,26.499999709256212,-6.110275846555273));
#338=CARTESIAN_POINT('',(0.000496275920862,26.499999995353022,-0.372769693941220));
#339=CARTESIAN_POINT('',(0.000165426033970,26.500000001548976,-0.248513378873366));
#340=CARTESIAN_POINT('',(-1.638369E-015,26.500000000000000,-0.124256755534219));
#341=CARTESIAN_POINT('',(-1.622603E-015,26.500000000000000,-4.595662E-015));
#342=B_SPLINE_CURVE_WITH_KNOTS('',3,(#239,#240,#241,#242,#243,#244,#245,#246,#247,#248,#249,#250,#251,#252,#253,#254,#255,#256,#257,#258,#259,#260,#261,#262,#263,#264,#265,#266,#267,#268,#269,#270,#271,#272,#273,#274,#275,#276,#277,#278,#279,#280,#281,#282,#283,#284,#285,#286,#287,#288,#289,#290,#291,#292,#293,#294,#295,#296,#297,#298,#299,#300,#301,#302,#303,#304,#305,#306,#307,#308,#309,#310,#311,#312,#313,#314,#315,#316,#317,#318,#319,#320,#321,#322,#323,#324,#325,#326,#327,#328,#329,#330,#331,#332,#333,#334,#335,#336,#337,#338,#339,#340,#341),.UNSPECIFIED.,.F.,.U.,(4,3,3,3,3,3,3,3,3,3,3,3,3,3,3,3,3,3,3,3,3,3,3,3,3,3,3,3,3,3,3,3,3,3,4),(-34.576864222420568,-34.522549351755146,-32.364890017270447,-31.170922643383328,-30.624263936425034,-30.071669878645224,-26.312711143814571,-25.550037086302769,-24.952147208911931,-23.392638008354936,-22.591902520578287,-22.121221441742868,-21.723737250931123,-20.366003672747929,-19.920230380077317,-19.529540070534544,-18.147253907474127,-17.425780709438559,-16.514371970563754,-15.971356863504075,-15.217560719919607,-14.667900959576652,-13.832511272750475,-13.372758203261599,-11.796225441488524,-10.731195920175807,-9.389796430153831,-8.745709430412148,-8.236875546029205,-6.177656659521905,-4.727473822715122,-3.996834431294727,-1.721257947313424,0.0,0.037277026660264),.UNSPECIFIED.);
#343=EDGE_CURVE('',#236,#238,#342,.T.);
#344=ORIENTED_EDGE('',*,*,#343,.F.);
#345=CARTESIAN_POINT('',(0.0,0.0,0.0));
#346=DIRECTION('',(0.0,0.0,-1.0));
#347=DIRECTION('',(-1.0,0.0,0.0));
#348=AXIS2_PLACEMENT_3D('',#345,#346,#347);
#349=CIRCLE('',#348,26.500000000000000);
#350=EDGE_CURVE('',#236,#238,#349,.T.);
#351=ORIENTED_EDGE('',*,*,#350,.T.);
#352=EDGE_LOOP('',(#344,#351));
#353=FACE_BOUND('',#352,.T.);
#354=ADVANCED_FACE('',(#234,#353),#223,.T.);
#355=CARTESIAN_POINT('',(0.0,0.0,-140.0));
#356=DIRECTION('',(0.0,0.0,-1.0));
#357=DIRECTION('',(-1.0,0.0,0.0));
#358=AXIS2_PLACEMENT_3D('',#355,#356,#357);
#359=PLANE('',#358);
#360=ORIENTED_EDGE('',*,*,#231,.T.);
#361=EDGE_LOOP('',(#360));
#362=FACE_OUTER_BOUND('',#361,.T.);
#363=ORIENTED_EDGE('',*,*,#187,.T.);
#364=EDGE_LOOP('',(#363));
#365=FACE_BOUND('',#364,.T.);
#366=ADVANCED_FACE('',(#362,#365),#359,.T.);
#367=CARTESIAN_POINT('',(70.0,0.0,-8.881784E-015));
#368=DIRECTION('',(0.0,1.0,0.0));
#369=DIRECTION('',(0.0,0.0,1.0));
#370=AXIS2_PLACEMENT_3D('',#367,#368,#369);
#371=TOROIDAL_SURFACE('',#370,70.0,26.500000000000000);
#372=CARTESIAN_POINT('',(69.999999999999986,3.245314E-015,-43.500000000000014));
#373=VERTEX_POINT('',#372);
#374=CARTESIAN_POINT('',(69.999999999999986,0.0,-70.000000000000014));
#375=DIRECTION('',(1.0,0.0,0.0));
#376=DIRECTION('',(0.0,0.0,-1.0));
#377=AXIS2_PLACEMENT_3D('',#374,#375,#376);
#378=CIRCLE('',#377,26.500000000000000);
#379=EDGE_CURVE('',#373,#373,#378,.T.);
#380=ORIENTED_EDGE('',*,*,#379,.F.);
#381=EDGE_LOOP('',(#380));
#382=FACE_OUTER_BOUND('',#381,.T.);
#383=ORIENTED_EDGE('',*,*,#343,.T.);
#384=CARTESIAN_POINT('',(0.0,0.0,0.0));
#385=DIRECTION('',(0.0,0.0,-1.0));
#386=DIRECTION('',(-1.0,0.0,0.0));
#387=AXIS2_PLACEMENT_3D('',#384,#385,#386);
#388=CIRCLE('',#387,26.500000000000000);
#389=EDGE_CURVE('',#238,#236,#388,.T.);
#390=ORIENTED_EDGE('',*,*,#389,.T.);
#391=EDGE_LOOP('',(#383,#390));
#392=FACE_BOUND('',#391,.T.);
#393=ADVANCED_FACE('',(#382,#392),#371,.T.);
#394=CARTESIAN_POINT('',(69.999999999999986,0.0,-70.000000000000014));
#395=DIRECTION('',(1.0,0.0,0.0));
#396=DIRECTION('',(0.0,0.0,-1.0));
#397=AXIS2_PLACEMENT_3D('',#394,#395,#396);
#398=PLANE('',#397);
#399=ORIENTED_EDGE('',*,*,#379,.T.);
#400=EDGE_LOOP('',(#399));
#401=FACE_OUTER_BOUND('',#400,.T.);
#402=ORIENTED_EDGE('',*,*,#204,.T.);
#403=EDGE_LOOP('',(#402));
#404=FACE_BOUND('',#403,.T.);
#405=ADVANCED_FACE('',(#401,#404),#398,.T.);
#406=CARTESIAN_POINT('',(0.0,0.0,0.0));
#407=DIRECTION('',(0.0,0.0,-1.0));
#408=DIRECTION('',(-1.0,0.0,0.0));
#409=AXIS2_PLACEMENT_3D('',#406,#407,#408);
#410=PLANE('',#409);
#411=ORIENTED_EDGE('',*,*,#389,.F.);
#412=ORIENTED_EDGE('',*,*,#350,.F.);
#413=EDGE_LOOP('',(#411,#412));
#414=FACE_OUTER_BOUND('',#413,.T.);
#415=ORIENTED_EDGE('',*,*,#214,.T.);
#416=ORIENTED_EDGE('',*,*,#176,.T.);
#417=EDGE_LOOP('',(#415,#416));
#418=FACE_BOUND('',#417,.T.);
#419=ADVANCED_FACE('',(#414,#418),#410,.F.);
#420=CLOSED_SHELL('',(#191,#218,#354,#366,#393,#405,#419));
#421=MANIFOLD_SOLID_BREP('',#420);
#422=COLOUR_RGB('Metall - Stahl',0.639216005802155,0.639216005802155,0.686275005340576);
#423=FILL_AREA_STYLE_COLOUR('Metall - Stahl',#422);
#424=FILL_AREA_STYLE('Metall - Stahl',(#423));
#425=SURFACE_STYLE_FILL_AREA(#424);
#426=SURFACE_SIDE_STYLE('Metall - Stahl',(#425));
#427=SURFACE_STYLE_USAGE(.BOTH.,#426);
#428=PRESENTATION_STYLE_ASSIGNMENT((#427));
#429=STYLED_ITEM('',(#428),#421);
#430=MECHANICAL_DESIGN_GEOMETRIC_PRESENTATION_REPRESENTATION('',(#429),#36);
#431=ADVANCED_BREP_SHAPE_REPRESENTATION('ABSR',(#421),#36);
#432=SHAPE_REPRESENTATION_RELATIONSHIP('SRR','None',#431,#41);
ENDSEC;
END-ISO-10303-21;
