ISO-10303-21;
HEADER;
/* Generated by software containing ST-Developer
 * from STEP Tools, Inc. (www.steptools.com) 
 */

FILE_DESCRIPTION(
/* description */ (''),
/* implementation_level */ '2;1');

FILE_NAME(
/* name */ 
'H:\\UHP\\!!! \X2\C11CBC84\X0\ \X2\D3F4B354\X0\ \X2\C815B9AC\X0\ \X2\C9C4D589\X0\ 
\X2\C911\X0\ !!!\\TEST\\8. \X2\AC1CC778BCC4\X0\ \X2\D3F4B354\X0\\\8. \X2\CD5CBCD1C8FC\X0\ 
\X2\C0ACC6D0\X0\\\\X2\C5C5BB34D611C870C804\X0\ 3D\\STEP\\SM8BGT.stp',
/* time_stamp */ '2025-03-10T14:12:02+09:00',
/* author */ ('user'),
/* organization */ (''),
/* preprocessor_version */ 'ST-DEVELOPER v20',
/* originating_system */ 'Autodesk Inventor 2022',
/* authorisation */ '');

FILE_SCHEMA (('AUTOMOTIVE_DESIGN { 1 0 10303 214 3 1 1 }'));
ENDSEC;

DATA;
#10=MECHANICAL_DESIGN_GEOMETRIC_PRESENTATION_REPRESENTATION('',(#38,#39,
#40,#41),#98);
#11=SHAPE_REPRESENTATION_RELATIONSHIP('SRR','None',#105,#12);
#12=ADVANCED_BREP_SHAPE_REPRESENTATION('',(#13),#97);
#13=MANIFOLD_SOLID_BREP('\X2\C194B9ACB4DC\X0\1',#45);
#14=PLANE('',#71);
#15=PLANE('',#72);
#16=FACE_OUTER_BOUND('',#19,.T.);
#17=FACE_OUTER_BOUND('',#20,.T.);
#18=FACE_OUTER_BOUND('',#21,.T.);
#19=EDGE_LOOP('',(#31,#32,#33,#34));
#20=EDGE_LOOP('',(#35));
#21=EDGE_LOOP('',(#36));
#22=LINE('',#91,#23);
#23=VECTOR('',#79,9.9);
#24=CIRCLE('',#69,9.9);
#25=CIRCLE('',#70,9.9);
#26=VERTEX_POINT('',#88);
#27=VERTEX_POINT('',#90);
#28=EDGE_CURVE('',#26,#26,#24,.T.);
#29=EDGE_CURVE('',#26,#27,#22,.T.);
#30=EDGE_CURVE('',#27,#27,#25,.T.);
#31=ORIENTED_EDGE('',*,*,#28,.F.);
#32=ORIENTED_EDGE('',*,*,#29,.T.);
#33=ORIENTED_EDGE('',*,*,#30,.T.);
#34=ORIENTED_EDGE('',*,*,#29,.F.);
#35=ORIENTED_EDGE('',*,*,#28,.T.);
#36=ORIENTED_EDGE('',*,*,#30,.F.);
#37=CYLINDRICAL_SURFACE('',#68,9.9);
#38=STYLED_ITEM('',(#115),#42);
#39=STYLED_ITEM('',(#115),#43);
#40=STYLED_ITEM('',(#115),#44);
#41=STYLED_ITEM('',(#114),#13);
#42=ADVANCED_FACE('',(#16),#37,.T.);
#43=ADVANCED_FACE('',(#17),#14,.T.);
#44=ADVANCED_FACE('',(#18),#15,.F.);
#45=CLOSED_SHELL('',(#42,#43,#44));
#46=DERIVED_UNIT_ELEMENT(#49,1.);
#47=DERIVED_UNIT_ELEMENT(#100,-3.);
#48=DIMENSIONAL_EXPONENTS(1.,0.,0.,0.,0.,0.,0.);
#49=(
CONVERSION_BASED_UNIT('gram',#51)
MASS_UNIT()
NAMED_UNIT(#48)
);
#50=(
MASS_UNIT()
NAMED_UNIT(*)
SI_UNIT(.KILO.,.GRAM.)
);
#51=MASS_MEASURE_WITH_UNIT(MASS_MEASURE(0.001),#50);
#52=DERIVED_UNIT((#46,#47));
#53=MEASURE_REPRESENTATION_ITEM('density measure',
POSITIVE_RATIO_MEASURE(1.),#52);
#54=PROPERTY_DEFINITION_REPRESENTATION(#59,#56);
#55=PROPERTY_DEFINITION_REPRESENTATION(#60,#57);
#56=REPRESENTATION('material name',(#58),#97);
#57=REPRESENTATION('density',(#53),#97);
#58=DESCRIPTIVE_REPRESENTATION_ITEM('\X2\C77CBC18\X0\','\X2\C77CBC18\X0\');
#59=PROPERTY_DEFINITION('material property','material name',#107);
#60=PROPERTY_DEFINITION('material property','density of part',#107);
#61=DATE_TIME_ROLE('creation_date');
#62=APPLIED_DATE_AND_TIME_ASSIGNMENT(#63,#61,(#107));
#63=DATE_AND_TIME(#64,#65);
#64=CALENDAR_DATE(2025,10,3);
#65=LOCAL_TIME(0,0,0.,#66);
#66=COORDINATED_UNIVERSAL_TIME_OFFSET(0,0,.BEHIND.);
#67=AXIS2_PLACEMENT_3D('placement',#86,#73,#74);
#68=AXIS2_PLACEMENT_3D('',#87,#75,#76);
#69=AXIS2_PLACEMENT_3D('',#89,#77,#78);
#70=AXIS2_PLACEMENT_3D('',#92,#80,#81);
#71=AXIS2_PLACEMENT_3D('',#93,#82,#83);
#72=AXIS2_PLACEMENT_3D('',#94,#84,#85);
#73=DIRECTION('axis',(0.,0.,1.));
#74=DIRECTION('refdir',(1.,0.,0.));
#75=DIRECTION('center_axis',(0.,0.,1.));
#76=DIRECTION('ref_axis',(1.,0.,0.));
#77=DIRECTION('center_axis',(0.,0.,1.));
#78=DIRECTION('ref_axis',(1.,0.,0.));
#79=DIRECTION('',(0.,0.,-1.));
#80=DIRECTION('center_axis',(0.,0.,1.));
#81=DIRECTION('ref_axis',(1.,0.,0.));
#82=DIRECTION('center_axis',(0.,0.,1.));
#83=DIRECTION('ref_axis',(1.,0.,0.));
#84=DIRECTION('center_axis',(0.,0.,1.));
#85=DIRECTION('ref_axis',(1.,0.,0.));
#86=CARTESIAN_POINT('',(0.,0.,0.));
#87=CARTESIAN_POINT('Origin',(0.,0.,0.));
#88=CARTESIAN_POINT('',(-9.9,-1.21240033115588E-15,0.8));
#89=CARTESIAN_POINT('Origin',(0.,0.,0.8));
#90=CARTESIAN_POINT('',(-9.9,-1.21240033115588E-15,0.));
#91=CARTESIAN_POINT('',(-9.9,-1.21240033115588E-15,0.));
#92=CARTESIAN_POINT('Origin',(0.,0.,0.));
#93=CARTESIAN_POINT('Origin',(0.,0.,0.8));
#94=CARTESIAN_POINT('Origin',(0.,0.,0.));
#95=UNCERTAINTY_MEASURE_WITH_UNIT(LENGTH_MEASURE(0.01),#99,
'DISTANCE_ACCURACY_VALUE',
'Maximum model space distance between geometric entities at asserted c
onnectivities');
#96=UNCERTAINTY_MEASURE_WITH_UNIT(LENGTH_MEASURE(0.01),#99,
'DISTANCE_ACCURACY_VALUE',
'Maximum model space distance between geometric entities at asserted c
onnectivities');
#97=(
GEOMETRIC_REPRESENTATION_CONTEXT(3)
GLOBAL_UNCERTAINTY_ASSIGNED_CONTEXT((#95))
GLOBAL_UNIT_ASSIGNED_CONTEXT((#99,#101,#102))
REPRESENTATION_CONTEXT('','3D')
);
#98=(
GEOMETRIC_REPRESENTATION_CONTEXT(3)
GLOBAL_UNCERTAINTY_ASSIGNED_CONTEXT((#96))
GLOBAL_UNIT_ASSIGNED_CONTEXT((#99,#101,#102))
REPRESENTATION_CONTEXT('','3D')
);
#99=(
LENGTH_UNIT()
NAMED_UNIT(*)
SI_UNIT(.MILLI.,.METRE.)
);
#100=(
LENGTH_UNIT()
NAMED_UNIT(*)
SI_UNIT(.CENTI.,.METRE.)
);
#101=(
NAMED_UNIT(*)
PLANE_ANGLE_UNIT()
SI_UNIT($,.RADIAN.)
);
#102=(
NAMED_UNIT(*)
SI_UNIT($,.STERADIAN.)
SOLID_ANGLE_UNIT()
);
#103=SHAPE_DEFINITION_REPRESENTATION(#104,#105);
#104=PRODUCT_DEFINITION_SHAPE('',$,#107);
#105=SHAPE_REPRESENTATION('',(#67),#97);
#106=PRODUCT_DEFINITION_CONTEXT('part definition',#111,'design');
#107=PRODUCT_DEFINITION('SM8BGT','SM8BGT',#108,#106);
#108=PRODUCT_DEFINITION_FORMATION('',$,#113);
#109=PRODUCT_RELATED_PRODUCT_CATEGORY('SM8BGT','SM8BGT',(#113));
#110=APPLICATION_PROTOCOL_DEFINITION('international standard',
'automotive_design',2009,#111);
#111=APPLICATION_CONTEXT(
'Core Data for Automotive Mechanical Design Process');
#112=PRODUCT_CONTEXT('part definition',#111,'mechanical');
#113=PRODUCT('SM8BGT','SM8BGT',$,(#112));
#114=PRESENTATION_STYLE_ASSIGNMENT((#116));
#115=PRESENTATION_STYLE_ASSIGNMENT((#117));
#116=SURFACE_STYLE_USAGE(.BOTH.,#122);
#117=SURFACE_STYLE_USAGE(.BOTH.,#123);
#118=SURFACE_STYLE_RENDERING_WITH_PROPERTIES($,#130,(#120));
#119=SURFACE_STYLE_RENDERING_WITH_PROPERTIES($,#131,(#121));
#120=SURFACE_STYLE_TRANSPARENT(0.);
#121=SURFACE_STYLE_TRANSPARENT(0.);
#122=SURFACE_SIDE_STYLE('',(#124,#118));
#123=SURFACE_SIDE_STYLE('',(#125,#119));
#124=SURFACE_STYLE_FILL_AREA(#126);
#125=SURFACE_STYLE_FILL_AREA(#127);
#126=FILL_AREA_STYLE('',(#128));
#127=FILL_AREA_STYLE('',(#129));
#128=FILL_AREA_STYLE_COLOUR('',#130);
#129=FILL_AREA_STYLE_COLOUR('',#131);
#130=COLOUR_RGB('',0.749019607843137,0.749019607843137,0.749019607843137);
#131=COLOUR_RGB('',0.745098039215686,0.737254901960784,0.729411764705882);
ENDSEC;
END-ISO-10303-21;
