ISO-10303-21;
HEADER;
FILE_DESCRIPTION (( 'STEP AP214' ),
    '1' );
FILE_NAME ('CR 4''''x3''''.STEP',
    '2026-01-13T08:43:11',
    ( '' ),
    ( '' ),
    'SwSTEP 2.0',
    'SolidWorks 2018',
    '' );
FILE_SCHEMA (( 'AUTOMOTIVE_DESIGN' ));
ENDSEC;

DATA;
#1 = ORIENTED_EDGE ( 'NONE', *, *, #151, .F. ) ;
#2 = VERTEX_POINT ( 'NONE', #191 ) ;
#3 = EDGE_CURVE ( 'NONE', #117, #204, #5, .T. ) ;
#4 = DIRECTION ( 'NONE',  ( -1.387778780781445182E-16, -1.000000000000000000, 0.0000000000000000000 ) ) ;
#5 = CIRCLE ( 'NONE', #133, 48.70000000000000995 ) ;
#6 = CARTESIAN_POINT ( 'NONE',  ( 49.99999999999999289, -14.73520337997898721, 0.0000000000000000000 ) ) ;
#7 = CARTESIAN_POINT ( 'NONE',  ( 0.0000000000000000000, 33.96479662002101918, 5.964029911847610077E-15 ) ) ;
#8 = EDGE_LOOP ( 'NONE', ( #17, #51 ) ) ;
#9 =( NAMED_UNIT ( * ) PLANE_ANGLE_UNIT ( ) SI_UNIT ( $, .RADIAN. ) );
#10 = CARTESIAN_POINT ( 'NONE',  ( 50.00000000000000000, 23.36479662002102131, 5.443555022209985697E-15 ) ) ;
#11 = FACE_BOUND ( 'NONE', #123, .T. ) ;
#12 = CARTESIAN_POINT ( 'NONE',  ( -6.758482662405638073E-15, -14.73520337997898189, 0.0000000000000000000 ) ) ;
#13 = SURFACE_SIDE_STYLE ('',( #63 ) ) ;
#14 =( GEOMETRIC_REPRESENTATION_CONTEXT ( 3 ) GLOBAL_UNCERTAINTY_ASSIGNED_CONTEXT ( ( #86 ) ) GLOBAL_UNIT_ASSIGNED_CONTEXT ( ( #92, #9, #164 ) ) REPRESENTATION_CONTEXT ( 'NONE', 'WORKASPACE' ) );
#15 = EDGE_CURVE ( 'NONE', #195, #31, #136, .T. ) ;
#16 = STYLED_ITEM ( 'NONE', ( #21 ), #112 ) ;
#17 = ORIENTED_EDGE ( 'NONE', *, *, #171, .T. ) ;
#18 = UNCERTAINTY_MEASURE_WITH_UNIT (LENGTH_MEASURE( 1.000000000000000082E-05 ), #168, 'distance_accuracy_value', 'NONE');
#19 = AXIS2_PLACEMENT_3D ( 'NONE', #130, #131, #174 ) ;
#20 = DIRECTION ( 'NONE',  ( -1.000000000000000000, 1.387778780781445182E-16, -0.0000000000000000000 ) ) ;
#21 = PRESENTATION_STYLE_ASSIGNMENT (( #184 ) ) ;
#22 = AXIS2_PLACEMENT_3D ( 'NONE', #90, #142, #179 ) ;
#23 = DIRECTION ( 'NONE',  ( -1.000000000000000000, 1.387778780781445182E-16, -0.0000000000000000000 ) ) ;
#24 = ORIENTED_EDGE ( 'NONE', *, *, #3, .T. ) ;
#25 = CARTESIAN_POINT ( 'NONE',  ( 49.99999999999999289, -14.73520337997898721, 0.0000000000000000000 ) ) ;
#26 = PRESENTATION_LAYER_ASSIGNMENT (  '', '', ( #16 ) ) ;
#27 = SURFACE_SIDE_STYLE ('',( #65 ) ) ;
#28 = ADVANCED_FACE ( 'NONE', ( #105 ), #183, .F. ) ;
#29 = DIRECTION ( 'NONE',  ( -1.903674596408018147E-16, -1.000000000000000000, 0.0000000000000000000 ) ) ;
#30 = LINE ( 'NONE', #7, #39 ) ;
#31 = VERTEX_POINT ( 'NONE', #153 ) ;
#32 = AXIS2_PLACEMENT_3D ( 'NONE', #52, #85, #4 ) ;
#33 = ORIENTED_EDGE ( 'NONE', *, *, #3, .F. ) ;
#34 = AXIS2_PLACEMENT_3D ( 'NONE', #124, #46, #110 ) ;
#35 = VECTOR ( 'NONE', #50, 1000.000000000000114 ) ;
#36 = PRODUCT ( 'CR 4''''''''x3''''''''', 'CR 4''''''''x3''''''''', '', ( #165 ) ) ;
#37 = DIRECTION ( 'NONE',  ( -1.387778780781444936E-16, -1.000000000000000000, 0.0000000000000000000 ) ) ;
#38 = DIRECTION ( 'NONE',  ( -1.000000000000000000, 1.387778780781445182E-16, -0.0000000000000000000 ) ) ;
#39 = VECTOR ( 'NONE', #42, 1000.000000000000114 ) ;
#40 = LINE ( 'NONE', #91, #210 ) ;
#41 = CARTESIAN_POINT ( 'NONE',  ( -1.398881011027696925E-14, -65.53520337997898082, 0.0000000000000000000 ) ) ;
#42 = DIRECTION ( 'NONE',  ( -0.9712744087171469864, 0.2379622301357009473, 2.914196834536518216E-17 ) ) ;
#43 = FILL_AREA_STYLE ('',( #143 ) ) ;
#44 = AXIS2_PLACEMENT_3D ( 'NONE', #25, #74, #107 ) ;
#45 =( NAMED_UNIT ( * ) SI_UNIT ( $, .STERADIAN. ) SOLID_ANGLE_UNIT ( ) );
#46 = DIRECTION ( 'NONE',  ( 0.0000000000000000000, 0.0000000000000000000, 1.000000000000000000 ) ) ;
#47 = APPLICATION_PROTOCOL_DEFINITION ( 'draft international standard', 'automotive_design', 1998, #76 ) ;
#48 = PRODUCT_DEFINITION ( 'UNKNOWN', '', #108, #101 ) ;
#49 = AXIS2_PLACEMENT_3D ( 'NONE', #193, #23, #156 ) ;
#50 = DIRECTION ( 'NONE',  ( -0.9692234279359353000, 0.2461827506957274814, 3.014869176448132864E-17 ) ) ;
#51 = ORIENTED_EDGE ( 'NONE', *, *, #208, .T. ) ;
#52 = CARTESIAN_POINT ( 'NONE',  ( 50.00000000000000000, 23.36479662002102131, 0.0000000000000000000 ) ) ;
#53 = DIRECTION ( 'NONE',  ( -1.000000000000000000, 1.387778780781445182E-16, -0.0000000000000000000 ) ) ;
#54 = ORIENTED_EDGE ( 'NONE', *, *, #157, .F. ) ;
#55 = ORIENTED_EDGE ( 'NONE', *, *, #151, .T. ) ;
#56 = CONICAL_SURFACE ( 'NONE', #126, 38.10000000000000853, 0.2487398113528481725 ) ;
#57 = VERTEX_POINT ( 'NONE', #118 ) ;
#58 = CARTESIAN_POINT ( 'NONE',  ( 49.99999999999999289, -14.73520337997898721, 0.0000000000000000000 ) ) ;
#59 = EDGE_CURVE ( 'NONE', #2, #195, #155, .T. ) ;
#60 = CARTESIAN_POINT ( 'NONE',  ( -7.049916206369740876E-15, -14.73520337997898189, 0.0000000000000000000 ) ) ;
#61 = DIRECTION ( 'NONE',  ( -0.9712744087171470975, -0.2379622301357006975, 0.0000000000000000000 ) ) ;
#62 = CIRCLE ( 'NONE', #87, 48.70000000000000995 ) ;
#63 = SURFACE_STYLE_FILL_AREA ( #211 ) ;
#64 = ADVANCED_FACE ( 'NONE', ( #203 ), #56, .T. ) ;
#65 = SURFACE_STYLE_FILL_AREA ( #43 ) ;
#66 = ORIENTED_EDGE ( 'NONE', *, *, #205, .F. ) ;
#67 =( GEOMETRIC_REPRESENTATION_CONTEXT ( 3 ) GLOBAL_UNCERTAINTY_ASSIGNED_CONTEXT ( ( #18 ) ) GLOBAL_UNIT_ASSIGNED_CONTEXT ( ( #168, #146, #162 ) ) REPRESENTATION_CONTEXT ( 'NONE', 'WORKASPACE' ) );
#68 = EDGE_LOOP ( 'NONE', ( #54, #66, #161, #132 ) ) ;
#69 = PRODUCT_RELATED_PRODUCT_CATEGORY ( 'part', '', ( #36 ) ) ;
#70 = EDGE_LOOP ( 'NONE', ( #98, #99, #24, #135 ) ) ;
#71 = CIRCLE ( 'NONE', #148, 50.79999999999999716 ) ;
#72 = AXIS2_PLACEMENT_3D ( 'NONE', #178, #53, #207 ) ;
#73 = CARTESIAN_POINT ( 'NONE',  ( -6.758482662405638073E-15, -14.73520337997898189, 0.0000000000000000000 ) ) ;
#74 = DIRECTION ( 'NONE',  ( -1.000000000000000000, 1.387778780781445182E-16, -0.0000000000000000000 ) ) ;
#75 = SURFACE_STYLE_USAGE ( .BOTH. , #27 ) ;
#76 = APPLICATION_CONTEXT ( 'automotive_design' ) ;
#77 = VECTOR ( 'NONE', #61, 1000.000000000000227 ) ;
#78 = APPLICATION_CONTEXT ( 'automotive_design' ) ;
#79 = CIRCLE ( 'NONE', #113, 36.45000000000000995 ) ;
#80 =( GEOMETRIC_REPRESENTATION_CONTEXT ( 3 ) GLOBAL_UNCERTAINTY_ASSIGNED_CONTEXT ( ( #173 ) ) GLOBAL_UNIT_ASSIGNED_CONTEXT ( ( #212, #198, #45 ) ) REPRESENTATION_CONTEXT ( 'NONE', 'WORKASPACE' ) );
#81 = CIRCLE ( 'NONE', #44, 38.10000000000000853 ) ;
#82 = EDGE_CURVE ( 'NONE', #204, #117, #62, .T. ) ;
#83 = CARTESIAN_POINT ( 'NONE',  ( 50.00000000000000000, 23.36479662002102131, 4.665904304751416876E-15 ) ) ;
#84 = ORIENTED_EDGE ( 'NONE', *, *, #59, .T. ) ;
#85 = DIRECTION ( 'NONE',  ( -1.000000000000000000, 1.387778780781445182E-16, 0.0000000000000000000 ) ) ;
#86 = UNCERTAINTY_MEASURE_WITH_UNIT (LENGTH_MEASURE( 1.000000000000000082E-05 ), #92, 'distance_accuracy_value', 'NONE');
#87 = AXIS2_PLACEMENT_3D ( 'NONE', #73, #88, #206 ) ;
#88 = DIRECTION ( 'NONE',  ( -1.000000000000000000, 1.387778780781445182E-16, -0.0000000000000000000 ) ) ;
#89 = DIRECTION ( 'NONE',  ( -1.000000000000000000, 1.387778780781445182E-16, -0.0000000000000000000 ) ) ;
#90 = CARTESIAN_POINT ( 'NONE',  ( 1.457167719820511057E-16, 36.06479662002101350, 0.0000000000000000000 ) ) ;
#91 = CARTESIAN_POINT ( 'NONE',  ( 49.99999999999998579, -52.83520337997899929, 0.0000000000000000000 ) ) ;
#92 =( LENGTH_UNIT ( ) NAMED_UNIT ( * ) SI_UNIT ( .MILLI., .METRE. ) );
#93 = CLOSED_SHELL ( 'NONE', ( #64, #185, #28, #125, #129, #94 ) ) ;
#94 = ADVANCED_FACE ( 'NONE', ( #158, #11 ), #196, .F. ) ;
#95 = DIRECTION ( 'NONE',  ( -1.387778780781444936E-16, -1.000000000000000000, 0.0000000000000000000 ) ) ;
#96 = PRODUCT_DEFINITION_SHAPE ( 'NONE', 'NONE',  #48 ) ;
#97 = LINE ( 'NONE', #139, #77 ) ;
#98 = ORIENTED_EDGE ( 'NONE', *, *, #104, .F. ) ;
#99 = ORIENTED_EDGE ( 'NONE', *, *, #157, .T. ) ;
#100 = CARTESIAN_POINT ( 'NONE',  ( 49.99999999999999289, -14.73520337997898721, 0.0000000000000000000 ) ) ;
#101 = PRODUCT_DEFINITION_CONTEXT ( 'detailed design', #78, 'design' ) ;
#102 = ORIENTED_EDGE ( 'NONE', *, *, #171, .F. ) ;
#103 = ORIENTED_EDGE ( 'NONE', *, *, #15, .F. ) ;
#104 = EDGE_CURVE ( 'NONE', #159, #57, #122, .T. ) ;
#105 = FACE_OUTER_BOUND ( 'NONE', #68, .T. ) ;
#106 = COLOUR_RGB ( '',0.7921568627450980005, 0.8196078431372548767, 0.9333333333333333481 ) ;
#107 = DIRECTION ( 'NONE',  ( -1.821231995776174986E-16, -1.000000000000000000, 0.0000000000000000000 ) ) ;
#108 = PRODUCT_DEFINITION_FORMATION_WITH_SPECIFIED_SOURCE ( 'ANY', '', #36, .NOT_KNOWN. ) ;
#109 = DIRECTION ( 'NONE',  ( -1.000000000000000000, 1.387778780781445182E-16, -0.0000000000000000000 ) ) ;
#110 = DIRECTION ( 'NONE',  ( 1.000000000000000000, 0.0000000000000000000, 0.0000000000000000000 ) ) ;
#111 = FILL_AREA_STYLE_COLOUR ( '', #106 ) ;
#112 = ADVANCED_BREP_SHAPE_REPRESENTATION ( 'CR 4''''''''x3''''''''', ( #200, #34 ), #67 ) ;
#113 = AXIS2_PLACEMENT_3D ( 'NONE', #58, #181, #29 ) ;
#114 = COLOUR_RGB ( '',0.7921568627450980005, 0.8196078431372548767, 0.9333333333333333481 ) ;
#115 = EDGE_LOOP ( 'NONE', ( #84, #213, #102, #138 ) ) ;
#116 = CARTESIAN_POINT ( 'NONE',  ( -6.758482662405638073E-15, -14.73520337997898189, 0.0000000000000000000 ) ) ;
#117 = VERTEX_POINT ( 'NONE', #194 ) ;
#118 = CARTESIAN_POINT ( 'NONE',  ( 49.99999999999998579, -51.18520337997900072, 0.0000000000000000000 ) ) ;
#119 = CONICAL_SURFACE ( 'NONE', #189, 48.70000000000000995, 0.2402672727809382902 ) ;
#120 = CARTESIAN_POINT ( 'NONE',  ( 50.00000000000000000, 21.71479662002102273, 5.213933747369857295E-15 ) ) ;
#121 = FACE_OUTER_BOUND ( 'NONE', #70, .T. ) ;
#122 = CIRCLE ( 'NONE', #140, 36.45000000000000995 ) ;
#123 = EDGE_LOOP ( 'NONE', ( #149, #192 ) ) ;
#124 = CARTESIAN_POINT ( 'NONE',  ( 0.0000000000000000000, 0.0000000000000000000, 0.0000000000000000000 ) ) ;
#125 = ADVANCED_FACE ( 'NONE', ( #214, #202 ), #134, .F. ) ;
#126 = AXIS2_PLACEMENT_3D ( 'NONE', #100, #38, #154 ) ;
#127 = DIRECTION ( 'NONE',  ( -1.000000000000000000, 1.387778780781445182E-16, -0.0000000000000000000 ) ) ;
#128 = EDGE_LOOP ( 'NONE', ( #167, #1 ) ) ;
#129 = ADVANCED_FACE ( 'NONE', ( #170 ), #201, .T. ) ;
#130 = CARTESIAN_POINT ( 'NONE',  ( -6.758482662405638073E-15, -14.73520337997898189, 0.0000000000000000000 ) ) ;
#131 = DIRECTION ( 'NONE',  ( -1.000000000000000000, 1.387778780781445182E-16, -0.0000000000000000000 ) ) ;
#132 = ORIENTED_EDGE ( 'NONE', *, *, #82, .T. ) ;
#133 = AXIS2_PLACEMENT_3D ( 'NONE', #116, #20, #37 ) ;
#134 = PLANE ( 'NONE',  #22 ) ;
#135 = ORIENTED_EDGE ( 'NONE', *, *, #166, .F. ) ;
#136 = LINE ( 'NONE', #83, #35 ) ;
#137 = SHAPE_DEFINITION_REPRESENTATION ( #96, #112 ) ;
#138 = ORIENTED_EDGE ( 'NONE', *, *, #182, .F. ) ;
#139 = CARTESIAN_POINT ( 'NONE',  ( -1.351696532481127615E-14, -63.43520337997898650, 0.0000000000000000000 ) ) ;
#140 = AXIS2_PLACEMENT_3D ( 'NONE', #6, #89, #176 ) ;
#141 = VERTEX_POINT ( 'NONE', #41 ) ;
#142 = DIRECTION ( 'NONE',  ( 1.000000000000000000, -1.387778780781445182E-16, 0.0000000000000000000 ) ) ;
#143 = FILL_AREA_STYLE_COLOUR ( '', #114 ) ;
#144 = CARTESIAN_POINT ( 'NONE',  ( -7.049916206369740876E-15, -14.73520337997898189, 0.0000000000000000000 ) ) ;
#145 = CARTESIAN_POINT ( 'NONE',  ( -1.351696532481127772E-14, -63.43520337997898650, 0.0000000000000000000 ) ) ;
#146 =( NAMED_UNIT ( * ) PLANE_ANGLE_UNIT ( ) SI_UNIT ( $, .RADIAN. ) );
#147 = DIRECTION ( 'NONE',  ( -1.387778780781445182E-16, -1.000000000000000000, 0.0000000000000000000 ) ) ;
#148 = AXIS2_PLACEMENT_3D ( 'NONE', #60, #163, #147 ) ;
#149 = ORIENTED_EDGE ( 'NONE', *, *, #205, .T. ) ;
#150 = EDGE_LOOP ( 'NONE', ( #209, #33 ) ) ;
#151 = EDGE_CURVE ( 'NONE', #195, #2, #81, .T. ) ;
#152 = STYLED_ITEM ( 'NONE', ( #172 ), #200 ) ;
#153 = CARTESIAN_POINT ( 'NONE',  ( -1.110223024625126712E-16, 36.06479662002101350, 6.221205739668553730E-15 ) ) ;
#154 = DIRECTION ( 'NONE',  ( -1.821231995776174986E-16, -1.000000000000000000, 0.0000000000000000000 ) ) ;
#155 = CIRCLE ( 'NONE', #49, 38.10000000000000853 ) ;
#156 = DIRECTION ( 'NONE',  ( -1.821231995776174986E-16, -1.000000000000000000, 0.0000000000000000000 ) ) ;
#157 = EDGE_CURVE ( 'NONE', #159, #117, #30, .T. ) ;
#158 = FACE_OUTER_BOUND ( 'NONE', #128, .T. ) ;
#159 = VERTEX_POINT ( 'NONE', #120 ) ;
#160 = CIRCLE ( 'NONE', #175, 50.79999999999999716 ) ;
#161 = ORIENTED_EDGE ( 'NONE', *, *, #166, .T. ) ;
#162 =( NAMED_UNIT ( * ) SI_UNIT ( $, .STERADIAN. ) SOLID_ANGLE_UNIT ( ) );
#163 = DIRECTION ( 'NONE',  ( -1.000000000000000000, 1.387778780781445182E-16, -0.0000000000000000000 ) ) ;
#164 =( NAMED_UNIT ( * ) SI_UNIT ( $, .STERADIAN. ) SOLID_ANGLE_UNIT ( ) );
#165 = PRODUCT_CONTEXT ( 'NONE', #76, 'mechanical' ) ;
#166 = EDGE_CURVE ( 'NONE', #57, #204, #97, .T. ) ;
#167 = ORIENTED_EDGE ( 'NONE', *, *, #59, .F. ) ;
#168 =( LENGTH_UNIT ( ) NAMED_UNIT ( * ) SI_UNIT ( .MILLI., .METRE. ) );
#169 = PRESENTATION_LAYER_ASSIGNMENT (  '', '', ( #152 ) ) ;
#170 = FACE_OUTER_BOUND ( 'NONE', #187, .T. ) ;
#171 = EDGE_CURVE ( 'NONE', #141, #31, #160, .T. ) ;
#172 = PRESENTATION_STYLE_ASSIGNMENT (( #75 ) ) ;
#173 = UNCERTAINTY_MEASURE_WITH_UNIT (LENGTH_MEASURE( 1.000000000000000082E-05 ), #212, 'distance_accuracy_value', 'NONE');
#174 = DIRECTION ( 'NONE',  ( -1.387778780781444936E-16, -1.000000000000000000, 0.0000000000000000000 ) ) ;
#175 = AXIS2_PLACEMENT_3D ( 'NONE', #144, #127, #197 ) ;
#176 = DIRECTION ( 'NONE',  ( -1.903674596408018147E-16, -1.000000000000000000, 0.0000000000000000000 ) ) ;
#177 = MECHANICAL_DESIGN_GEOMETRIC_PRESENTATION_REPRESENTATION (  '', ( #152 ), #80 ) ;
#178 = CARTESIAN_POINT ( 'NONE',  ( 49.99999999999999289, -14.73520337997898721, 0.0000000000000000000 ) ) ;
#179 = DIRECTION ( 'NONE',  ( 1.387778780781445182E-16, 1.000000000000000000, 0.0000000000000000000 ) ) ;
#180 = DIRECTION ( 'NONE',  ( -0.9692234279359354110, -0.2461827506957272316, 0.0000000000000000000 ) ) ;
#181 = DIRECTION ( 'NONE',  ( -1.000000000000000000, 1.387778780781445182E-16, -0.0000000000000000000 ) ) ;
#182 = EDGE_CURVE ( 'NONE', #2, #141, #40, .T. ) ;
#183 = CONICAL_SURFACE ( 'NONE', #19, 48.70000000000000995, 0.2402672727809382902 ) ;
#184 = SURFACE_STYLE_USAGE ( .BOTH. , #13 ) ;
#185 = ADVANCED_FACE ( 'NONE', ( #121 ), #119, .F. ) ;
#186 = MECHANICAL_DESIGN_GEOMETRIC_PRESENTATION_REPRESENTATION (  '', ( #16 ), #14 ) ;
#187 = EDGE_LOOP ( 'NONE', ( #103, #55, #190, #188 ) ) ;
#188 = ORIENTED_EDGE ( 'NONE', *, *, #208, .F. ) ;
#189 = AXIS2_PLACEMENT_3D ( 'NONE', #12, #109, #95 ) ;
#190 = ORIENTED_EDGE ( 'NONE', *, *, #182, .T. ) ;
#191 = CARTESIAN_POINT ( 'NONE',  ( 49.99999999999998579, -52.83520337997899929, 0.0000000000000000000 ) ) ;
#192 = ORIENTED_EDGE ( 'NONE', *, *, #104, .T. ) ;
#193 = CARTESIAN_POINT ( 'NONE',  ( 49.99999999999999289, -14.73520337997898721, 0.0000000000000000000 ) ) ;
#194 = CARTESIAN_POINT ( 'NONE',  ( 0.0000000000000000000, 33.96479662002101918, 5.964029911847610077E-15 ) ) ;
#195 = VERTEX_POINT ( 'NONE', #10 ) ;
#196 = PLANE ( 'NONE',  #32 ) ;
#197 = DIRECTION ( 'NONE',  ( -1.387778780781445182E-16, -1.000000000000000000, 0.0000000000000000000 ) ) ;
#198 =( NAMED_UNIT ( * ) PLANE_ANGLE_UNIT ( ) SI_UNIT ( $, .RADIAN. ) );
#199 = APPLICATION_PROTOCOL_DEFINITION ( 'draft international standard', 'automotive_design', 1998, #78 ) ;
#200 = MANIFOLD_SOLID_BREP ( 'Revolve2', #93 ) ;
#201 = CONICAL_SURFACE ( 'NONE', #72, 38.10000000000000853, 0.2487398113528481725 ) ;
#202 = FACE_OUTER_BOUND ( 'NONE', #8, .T. ) ;
#203 = FACE_OUTER_BOUND ( 'NONE', #115, .T. ) ;
#204 = VERTEX_POINT ( 'NONE', #145 ) ;
#205 = EDGE_CURVE ( 'NONE', #57, #159, #79, .T. ) ;
#206 = DIRECTION ( 'NONE',  ( -1.387778780781444936E-16, -1.000000000000000000, 0.0000000000000000000 ) ) ;
#207 = DIRECTION ( 'NONE',  ( -1.821231995776174986E-16, -1.000000000000000000, 0.0000000000000000000 ) ) ;
#208 = EDGE_CURVE ( 'NONE', #31, #141, #71, .T. ) ;
#209 = ORIENTED_EDGE ( 'NONE', *, *, #82, .F. ) ;
#210 = VECTOR ( 'NONE', #180, 1000.000000000000227 ) ;
#211 = FILL_AREA_STYLE ('',( #111 ) ) ;
#212 =( LENGTH_UNIT ( ) NAMED_UNIT ( * ) SI_UNIT ( .MILLI., .METRE. ) );
#213 = ORIENTED_EDGE ( 'NONE', *, *, #15, .T. ) ;
#214 = FACE_BOUND ( 'NONE', #150, .T. ) ;
ENDSEC;
END-ISO-10303-21;
