ISO-10303-21;
HEADER;
/****************************************************************
 * Generated by software with PDE/Lib inside                    *
 * PDElib Version v51a, created Thu 12/14/2006                  *
 * International Technegroup Inc. (www.iti-oh.com)              *
 ****************************************************************/
FILE_DESCRIPTION((''),'2;1');
FILE_NAME('T:\\Arbeitspl\S\dtze\\Aushilfe\\KPeters\\3D\\Steps 08_10\\9446\\94460010X.stp','2010-09-14T12:52:21',('thilbrands'),(''),'Autodesk Inventor 2008','Autodesk Inventor 2008','');
FILE_SCHEMA(('AUTOMOTIVE_DESIGN { 1 0 10303 214 1 1 1 1 }'));
ENDSEC;
DATA;
#5=APPLICATION_CONTEXT('automotive design');
#6=APPLICATION_PROTOCOL_DEFINITION('International Standard','automotive_design',2001,#5);
#7=PRODUCT_CONTEXT('',#5,'mechanical');
#8=PRODUCT('94400050X','94400050X',$,(#7));
#9=PRODUCT_RELATED_PRODUCT_CATEGORY('part',$,(#8));
#10=PRODUCT_DEFINITION_FORMATION('',$,#8);
#11=PRODUCT_DEFINITION_CONTEXT('part definition',#5,'design');
#12=PRODUCT_DEFINITION('',$,#10,#11);
#18=(NAMED_UNIT(*)PLANE_ANGLE_UNIT()SI_UNIT($,.RADIAN.));
#19=DIMENSIONAL_EXPONENTS(0.0,0.0,0.0,0.0,0.0,0.0,0.0);
#20=PLANE_ANGLE_MEASURE_WITH_UNIT(PLANE_ANGLE_MEASURE(0.017453292500000),#18);
#24=(CONVERSION_BASED_UNIT('DEGREE',#20)NAMED_UNIT(#19)PLANE_ANGLE_UNIT());
#28=(NAMED_UNIT(*)SI_UNIT($,.STERADIAN.)SOLID_ANGLE_UNIT());
#32=(LENGTH_UNIT()NAMED_UNIT(*)SI_UNIT(.MILLI.,.METRE.));
#34=UNCERTAINTY_MEASURE_WITH_UNIT(LENGTH_MEASURE(0.010000000000000),#32,'DISTANCE_ACCURACY_VALUE','');
#36=(GEOMETRIC_REPRESENTATION_CONTEXT(3)GLOBAL_UNCERTAINTY_ASSIGNED_CONTEXT((#34))GLOBAL_UNIT_ASSIGNED_CONTEXT((#24,#28,#32))REPRESENTATION_CONTEXT('None','None'));
#37=AXIS2_PLACEMENT_3D('',#38,#39,#40);
#38=CARTESIAN_POINT('',(0.0,0.0,0.0));
#39=DIRECTION('',(0.0,0.0,1.0));
#40=DIRECTION('',(1.0,0.0,0.0));
#41=SHAPE_REPRESENTATION('',(#37),#36);
#42=PRODUCT_DEFINITION_SHAPE('','',#12);
#43=SHAPE_DEFINITION_REPRESENTATION(#42,#41);
#49=(NAMED_UNIT(*)PLANE_ANGLE_UNIT()SI_UNIT($,.RADIAN.));
#50=DIMENSIONAL_EXPONENTS(0.0,0.0,0.0,0.0,0.0,0.0,0.0);
#51=PLANE_ANGLE_MEASURE_WITH_UNIT(PLANE_ANGLE_MEASURE(0.017453292500000),#49);
#55=(CONVERSION_BASED_UNIT('DEGREE',#51)NAMED_UNIT(#50)PLANE_ANGLE_UNIT());
#59=(NAMED_UNIT(*)SI_UNIT($,.STERADIAN.)SOLID_ANGLE_UNIT());
#63=(LENGTH_UNIT()NAMED_UNIT(*)SI_UNIT(.MILLI.,.METRE.));
#65=UNCERTAINTY_MEASURE_WITH_UNIT(LENGTH_MEASURE(0.000001000000000),#63,'DISTANCE_ACCURACY_VALUE','');
#67=(GEOMETRIC_REPRESENTATION_CONTEXT(3)GLOBAL_UNCERTAINTY_ASSIGNED_CONTEXT((#65))GLOBAL_UNIT_ASSIGNED_CONTEXT((#55,#59,#63))REPRESENTATION_CONTEXT('','3D'));
#68=CARTESIAN_POINT('',(-40.0,5.613999999999992,0.0));
#69=DIRECTION('',(-1.0,0.0,0.0));
#70=DIRECTION('',(0.0,0.0,1.0));
#71=AXIS2_PLACEMENT_3D('',#68,#69,#70);
#72=PLANE('',#71);
#73=CARTESIAN_POINT('',(-40.0,6.363999999999992,0.0));
#74=VERTEX_POINT('',#73);
#75=CARTESIAN_POINT('',(-40.0,7.321386E-015,0.0));
#76=DIRECTION('',(1.0,0.0,0.0));
#77=DIRECTION('',(0.0,1.0,0.0));
#78=AXIS2_PLACEMENT_3D('',#75,#76,#77);
#79=CIRCLE('',#78,6.363999999999984);
#80=EDGE_CURVE('',#74,#74,#79,.T.);
#81=ORIENTED_EDGE('',*,*,#80,.F.);
#82=EDGE_LOOP('',(#81));
#83=FACE_OUTER_BOUND('',#82,.T.);
#84=CARTESIAN_POINT('',(-40.0,4.863999999999993,0.0));
#85=VERTEX_POINT('',#84);
#86=CARTESIAN_POINT('',(-40.0,7.321386E-015,0.0));
#87=DIRECTION('',(1.0,0.0,0.0));
#88=DIRECTION('',(0.0,1.0,0.0));
#89=AXIS2_PLACEMENT_3D('',#86,#87,#88);
#90=CIRCLE('',#89,4.863999999999986);
#91=EDGE_CURVE('',#85,#85,#90,.T.);
#92=ORIENTED_EDGE('',*,*,#91,.T.);
#93=EDGE_LOOP('',(#92));
#94=FACE_BOUND('',#93,.T.);
#95=ADVANCED_FACE('',(#83,#94),#72,.T.);
#96=CARTESIAN_POINT('',(-31.500000000000000,5.765592E-015,0.0));
#97=DIRECTION('',(1.0,-1.830347E-016,0.0));
#98=DIRECTION('',(0.0,1.0,0.0));
#99=AXIS2_PLACEMENT_3D('',#96,#97,#98);
#100=CYLINDRICAL_SURFACE('',#99,6.363999999999987);
#101=CARTESIAN_POINT('',(-23.0,6.363999999999992,0.0));
#102=VERTEX_POINT('',#101);
#103=CARTESIAN_POINT('',(-23.0,4.209797E-015,0.0));
#104=DIRECTION('',(1.0,0.0,0.0));
#105=DIRECTION('',(0.0,1.0,0.0));
#106=AXIS2_PLACEMENT_3D('',#103,#104,#105);
#107=CIRCLE('',#106,6.363999999999987);
#108=EDGE_CURVE('',#102,#102,#107,.T.);
#109=ORIENTED_EDGE('',*,*,#108,.F.);
#110=EDGE_LOOP('',(#109));
#111=FACE_OUTER_BOUND('',#110,.T.);
#112=ORIENTED_EDGE('',*,*,#80,.T.);
#113=EDGE_LOOP('',(#112));
#114=FACE_BOUND('',#113,.T.);
#115=ADVANCED_FACE('',(#111,#114),#100,.T.);
#116=CARTESIAN_POINT('',(-23.000000000000004,6.573164991562628,0.0));
#117=DIRECTION('',(-1.0,0.0,0.0));
#118=DIRECTION('',(0.0,0.0,1.0));
#119=AXIS2_PLACEMENT_3D('',#116,#117,#118);
#120=PLANE('',#119);
#121=CARTESIAN_POINT('',(-23.000000000000007,6.782329983125264,0.0));
#122=VERTEX_POINT('',#121);
#123=CARTESIAN_POINT('',(-23.000000000000007,4.209797E-015,0.0));
#124=DIRECTION('',(1.0,0.0,0.0));
#125=DIRECTION('',(0.0,1.0,0.0));
#126=AXIS2_PLACEMENT_3D('',#123,#124,#125);
#127=CIRCLE('',#126,6.782329983125259);
#128=EDGE_CURVE('',#122,#122,#127,.T.);
#129=ORIENTED_EDGE('',*,*,#128,.F.);
#130=EDGE_LOOP('',(#129));
#131=FACE_OUTER_BOUND('',#130,.T.);
#132=ORIENTED_EDGE('',*,*,#108,.T.);
#133=EDGE_LOOP('',(#132));
#134=FACE_BOUND('',#133,.T.);
#135=ADVANCED_FACE('',(#131,#134),#120,.T.);
#136=CARTESIAN_POINT('',(-12.500000000000000,1.540744E-031,0.0));
#137=DIRECTION('',(0.0,0.0,1.0));
#138=DIRECTION('',(1.0,0.0,0.0));
#139=AXIS2_PLACEMENT_3D('',#136,#137,#138);
#140=SPHERICAL_SURFACE('',#139,12.500000000000002);
#141=ORIENTED_EDGE('',*,*,#128,.T.);
#142=EDGE_LOOP('',(#141));
#143=FACE_OUTER_BOUND('',#142,.T.);
#144=ADVANCED_FACE('',(#143),#140,.T.);
#145=CARTESIAN_POINT('',(-12.500000000000000,7.159306E-032,-11.000000000000004));
#146=CARTESIAN_POINT('',(-23.500000000000004,-1.347067E-015,-11.000000000000004));
#147=CARTESIAN_POINT('',(-23.500000000000004,-1.347067E-015,0.0));
#148=CARTESIAN_POINT('',(-23.500000000000004,-1.347067E-015,11.000000000000004));
#149=CARTESIAN_POINT('',(-12.500000000000000,7.159306E-032,11.000000000000004));
#150=CARTESIAN_POINT('',(-12.500000000000000,7.159306E-032,-11.000000000000004));
#151=CARTESIAN_POINT('',(-23.500000000000000,-11.000000000000004,-11.000000000000004));
#152=CARTESIAN_POINT('',(-23.500000000000004,-11.000000000000004,0.0));
#153=CARTESIAN_POINT('',(-23.500000000000000,-11.000000000000004,11.000000000000004));
#154=CARTESIAN_POINT('',(-12.500000000000000,7.159306E-032,11.000000000000004));
#155=CARTESIAN_POINT('',(-12.500000000000000,1.540744E-031,-11.000000000000004));
#156=CARTESIAN_POINT('',(-12.499999999999998,-11.000000000000004,-11.000000000000004));
#157=CARTESIAN_POINT('',(-12.499999999999998,-11.000000000000004,0.0));
#158=CARTESIAN_POINT('',(-12.499999999999998,-11.000000000000004,11.000000000000004));
#159=CARTESIAN_POINT('',(-12.500000000000000,1.540744E-031,11.000000000000004));
#160=CARTESIAN_POINT('',(-12.500000000000000,2.365557E-031,-11.000000000000004));
#161=CARTESIAN_POINT('',(-1.499999999999996,-11.0,-11.000000000000004));
#162=CARTESIAN_POINT('',(-1.499999999999996,-11.0,0.0));
#163=CARTESIAN_POINT('',(-1.499999999999996,-11.0,11.000000000000004));
#164=CARTESIAN_POINT('',(-12.500000000000000,2.365557E-031,11.000000000000004));
#165=CARTESIAN_POINT('',(-12.500000000000000,2.365557E-031,-11.000000000000004));
#166=CARTESIAN_POINT('',(-1.499999999999996,1.347067E-015,-11.000000000000004));
#167=CARTESIAN_POINT('',(-1.499999999999996,1.347067E-015,0.0));
#168=CARTESIAN_POINT('',(-1.499999999999996,1.347067E-015,11.000000000000004));
#169=CARTESIAN_POINT('',(-12.500000000000000,2.365557E-031,11.000000000000004));
#170=CARTESIAN_POINT('',(-12.500000000000000,2.365557E-031,-11.000000000000004));
#171=CARTESIAN_POINT('',(-1.500000000000000,11.000000000000004,-11.000000000000004));
#172=CARTESIAN_POINT('',(-1.500000000000000,11.000000000000004,0.0));
#173=CARTESIAN_POINT('',(-1.500000000000000,11.000000000000004,11.000000000000004));
#174=CARTESIAN_POINT('',(-12.500000000000000,2.365557E-031,11.000000000000004));
#175=CARTESIAN_POINT('',(-12.500000000000000,1.540744E-031,-11.000000000000004));
#176=CARTESIAN_POINT('',(-12.500000000000004,11.000000000000004,-11.000000000000004));
#177=CARTESIAN_POINT('',(-12.500000000000002,11.000000000000004,0.0));
#178=CARTESIAN_POINT('',(-12.500000000000004,11.000000000000004,11.000000000000004));
#179=CARTESIAN_POINT('',(-12.500000000000000,1.540744E-031,11.000000000000004));
#180=CARTESIAN_POINT('',(-12.500000000000000,7.159306E-032,-11.000000000000004));
#181=CARTESIAN_POINT('',(-23.500000000000004,11.0,-11.000000000000004));
#182=CARTESIAN_POINT('',(-23.500000000000004,11.0,0.0));
#183=CARTESIAN_POINT('',(-23.500000000000004,11.0,11.000000000000004));
#184=CARTESIAN_POINT('',(-12.500000000000000,7.159306E-032,11.000000000000004));
#185=CARTESIAN_POINT('',(-12.500000000000000,7.159306E-032,-11.000000000000004));
#186=CARTESIAN_POINT('',(-23.500000000000004,-1.347067E-015,-11.000000000000004));
#187=CARTESIAN_POINT('',(-23.500000000000004,-1.347067E-015,0.0));
#188=CARTESIAN_POINT('',(-23.500000000000004,-1.347067E-015,11.000000000000004));
#189=CARTESIAN_POINT('',(-12.500000000000000,7.159306E-032,11.000000000000004));
#197=(BOUNDED_SURFACE()B_SPLINE_SURFACE(2,2,((#145,#150,#155,#160,#165,#170,#175,#180,#185),(#146,#151,#156,#161,#166,#171,#176,#181,#186),(#147,#152,#157,#162,#167,#172,#177,#182,#187),(#148,#153,#158,#163,#168,#173,#178,#183,#188),(#149,#154,#159,#164,#169,#174,#179,#184,#189)),.UNSPECIFIED.,.F.,.T.,.U.)B_SPLINE_SURFACE_WITH_KNOTS((3,2,3),(3,2,2,2,3),(-1.570796326794897,0.0,1.570796326794897),(0.0,1.570796326794897,3.141592653589793,4.712388980384690,6.283185307179586),.UNSPECIFIED.)GEOMETRIC_REPRESENTATION_ITEM()RATIONAL_B_SPLINE_SURFACE(((1.0,0.707106781186548,1.0,0.707106781186548,1.0,0.707106781186548,1.0,0.707106781186548,1.0),(0.707106781186547,0.500000000000000,0.707106781186547,0.500000000000000,0.707106781186547,0.500000000000000,0.707106781186547,0.500000000000000,0.707106781186547),(1.0,0.707106781186548,1.0,0.707106781186548,1.0,0.707106781186548,1.0,0.707106781186548,1.0),(0.707106781186547,0.500000000000000,0.707106781186547,0.500000000000000,0.707106781186547,0.500000000000000,0.707106781186547,0.500000000000000,0.707106781186547),(1.0,0.707106781186548,1.0,0.707106781186548,1.0,0.707106781186548,1.0,0.707106781186548,1.0)))REPRESENTATION_ITEM('')SURFACE());
#198=CARTESIAN_POINT('',(-21.500000000000004,6.324555320336756,0.0));
#199=VERTEX_POINT('',#198);
#200=CARTESIAN_POINT('',(-21.500000000000004,3.935245E-015,0.0));
#201=DIRECTION('',(1.0,0.0,0.0));
#202=DIRECTION('',(0.0,1.0,0.0));
#203=AXIS2_PLACEMENT_3D('',#200,#201,#202);
#204=CIRCLE('',#203,6.324555320336751);
#205=EDGE_CURVE('',#199,#199,#204,.T.);
#206=ORIENTED_EDGE('',*,*,#205,.F.);
#207=EDGE_LOOP('',(#206));
#208=FACE_OUTER_BOUND('',#207,.T.);
#209=ADVANCED_FACE('',(#208),#197,.T.);
#210=CARTESIAN_POINT('',(-21.500000000000004,5.594277660168377,0.0));
#211=DIRECTION('',(1.0,0.0,0.0));
#212=DIRECTION('',(0.0,0.0,-1.0));
#213=AXIS2_PLACEMENT_3D('',#210,#211,#212);
#214=PLANE('',#213);
#215=ORIENTED_EDGE('',*,*,#205,.T.);
#216=EDGE_LOOP('',(#215));
#217=FACE_OUTER_BOUND('',#216,.T.);
#218=CARTESIAN_POINT('',(-21.500000000000004,4.863999999999997,0.0));
#219=VERTEX_POINT('',#218);
#220=CARTESIAN_POINT('',(-21.500000000000004,3.935245E-015,0.0));
#221=DIRECTION('',(1.0,0.0,0.0));
#222=DIRECTION('',(0.0,1.0,0.0));
#223=AXIS2_PLACEMENT_3D('',#220,#221,#222);
#224=CIRCLE('',#223,4.863999999999994);
#225=EDGE_CURVE('',#219,#219,#224,.T.);
#226=ORIENTED_EDGE('',*,*,#225,.F.);
#227=EDGE_LOOP('',(#226));
#228=FACE_BOUND('',#227,.T.);
#229=ADVANCED_FACE('',(#217,#228),#214,.T.);
#230=CARTESIAN_POINT('',(-30.750000000000000,5.628316E-015,0.0));
#231=DIRECTION('',(1.0,-1.830347E-016,0.0));
#232=DIRECTION('',(0.0,1.0,0.0));
#233=AXIS2_PLACEMENT_3D('',#230,#231,#232);
#234=CYLINDRICAL_SURFACE('',#233,4.863999999999989);
#235=ORIENTED_EDGE('',*,*,#91,.F.);
#236=EDGE_LOOP('',(#235));
#237=FACE_OUTER_BOUND('',#236,.T.);
#238=ORIENTED_EDGE('',*,*,#225,.T.);
#239=EDGE_LOOP('',(#238));
#240=FACE_BOUND('',#239,.T.);
#241=ADVANCED_FACE('',(#237,#240),#234,.F.);
#242=CLOSED_SHELL('',(#95,#115,#135,#144,#209,#229,#241));
#243=MANIFOLD_SOLID_BREP('',#242);
#244=COLOUR_RGB('Metall - Stahl',0.639216005802155,0.639216005802155,0.686275005340576);
#245=FILL_AREA_STYLE_COLOUR('Metall - Stahl',#244);
#246=FILL_AREA_STYLE('Metall - Stahl',(#245));
#247=SURFACE_STYLE_FILL_AREA(#246);
#248=SURFACE_SIDE_STYLE('Metall - Stahl',(#247));
#249=SURFACE_STYLE_USAGE(.BOTH.,#248);
#250=PRESENTATION_STYLE_ASSIGNMENT((#249));
#251=STYLED_ITEM('',(#250),#243);
#252=MECHANICAL_DESIGN_GEOMETRIC_PRESENTATION_REPRESENTATION('',(#251),#36);
#253=ADVANCED_BREP_SHAPE_REPRESENTATION('ABSR',(#243),#36);
#254=SHAPE_REPRESENTATION_RELATIONSHIP('SRR','None',#253,#41);
ENDSEC;
END-ISO-10303-21;
