ISO-10303-21;
HEADER;
/****************************************************************
 * Generated by software with PDE/Lib inside                    *
 * PDElib Version v51a, created Thu 12/14/2006                  *
 * International Technegroup Inc. (www.iti-oh.com)              *
 ****************************************************************/
FILE_DESCRIPTION((''),'2;1');
FILE_NAME('T:\\Arbeitspl\S\dtze\\Aushilfe\\KPeters\\3D\\Steps 08_10\\12602\\12602050X032.stp','2010-08-05T13:06:25',('thilbrands'),(''),'Autodesk Inventor 2008','Autodesk Inventor 2008','');
FILE_SCHEMA(('AUTOMOTIVE_DESIGN { 1 0 10303 214 1 1 1 1 }'));
ENDSEC;
DATA;
#5=APPLICATION_CONTEXT('automotive design');
#6=APPLICATION_PROTOCOL_DEFINITION('International Standard','automotive_design',2001,#5);
#7=PRODUCT_CONTEXT('',#5,'mechanical');
#8=PRODUCT('126020201015','126020201015',$,(#7));
#9=PRODUCT_RELATED_PRODUCT_CATEGORY('part',$,(#8));
#10=PRODUCT_DEFINITION_FORMATION('',$,#8);
#11=PRODUCT_DEFINITION_CONTEXT('part definition',#5,'design');
#12=PRODUCT_DEFINITION('',$,#10,#11);
#18=(NAMED_UNIT(*)PLANE_ANGLE_UNIT()SI_UNIT($,.RADIAN.));
#19=DIMENSIONAL_EXPONENTS(0.0,0.0,0.0,0.0,0.0,0.0,0.0);
#20=PLANE_ANGLE_MEASURE_WITH_UNIT(PLANE_ANGLE_MEASURE(0.017453292500000),#18);
#24=(CONVERSION_BASED_UNIT('DEGREE',#20)NAMED_UNIT(#19)PLANE_ANGLE_UNIT());
#28=(NAMED_UNIT(*)SI_UNIT($,.STERADIAN.)SOLID_ANGLE_UNIT());
#32=(LENGTH_UNIT()NAMED_UNIT(*)SI_UNIT(.MILLI.,.METRE.));
#34=UNCERTAINTY_MEASURE_WITH_UNIT(LENGTH_MEASURE(0.010000000000000),#32,'DISTANCE_ACCURACY_VALUE','');
#36=(GEOMETRIC_REPRESENTATION_CONTEXT(3)GLOBAL_UNCERTAINTY_ASSIGNED_CONTEXT((#34))GLOBAL_UNIT_ASSIGNED_CONTEXT((#24,#28,#32))REPRESENTATION_CONTEXT('None','None'));
#37=AXIS2_PLACEMENT_3D('',#38,#39,#40);
#38=CARTESIAN_POINT('',(0.0,0.0,0.0));
#39=DIRECTION('',(0.0,0.0,1.0));
#40=DIRECTION('',(1.0,0.0,0.0));
#41=SHAPE_REPRESENTATION('',(#37),#36);
#42=PRODUCT_DEFINITION_SHAPE('','',#12);
#43=SHAPE_DEFINITION_REPRESENTATION(#42,#41);
#49=(NAMED_UNIT(*)PLANE_ANGLE_UNIT()SI_UNIT($,.RADIAN.));
#50=DIMENSIONAL_EXPONENTS(0.0,0.0,0.0,0.0,0.0,0.0,0.0);
#51=PLANE_ANGLE_MEASURE_WITH_UNIT(PLANE_ANGLE_MEASURE(0.017453292500000),#49);
#55=(CONVERSION_BASED_UNIT('DEGREE',#51)NAMED_UNIT(#50)PLANE_ANGLE_UNIT());
#59=(NAMED_UNIT(*)SI_UNIT($,.STERADIAN.)SOLID_ANGLE_UNIT());
#63=(LENGTH_UNIT()NAMED_UNIT(*)SI_UNIT(.MILLI.,.METRE.));
#65=UNCERTAINTY_MEASURE_WITH_UNIT(LENGTH_MEASURE(0.000001000000000),#63,'DISTANCE_ACCURACY_VALUE','');
#67=(GEOMETRIC_REPRESENTATION_CONTEXT(3)GLOBAL_UNCERTAINTY_ASSIGNED_CONTEXT((#65))GLOBAL_UNIT_ASSIGNED_CONTEXT((#55,#59,#63))REPRESENTATION_CONTEXT('','3D'));
#68=CARTESIAN_POINT('',(-28.250000000000021,0.0,0.0));
#69=DIRECTION('',(1.0,0.0,0.0));
#70=DIRECTION('',(0.0,-1.0,0.0));
#71=AXIS2_PLACEMENT_3D('',#68,#69,#70);
#72=CONICAL_SURFACE('',#71,38.250000000000000,44.999999999999993);
#73=CARTESIAN_POINT('',(-29.000000000000021,37.500000000000000,4.592274E-015));
#74=VERTEX_POINT('',#73);
#75=CARTESIAN_POINT('',(-29.000000000000021,0.0,0.0));
#76=DIRECTION('',(1.0,0.0,0.0));
#77=DIRECTION('',(0.0,-1.0,0.0));
#78=AXIS2_PLACEMENT_3D('',#75,#76,#77);
#79=CIRCLE('',#78,37.500000000000000);
#80=EDGE_CURVE('',#74,#74,#79,.T.);
#81=ORIENTED_EDGE('',*,*,#80,.T.);
#82=EDGE_LOOP('',(#81));
#83=FACE_OUTER_BOUND('',#82,.T.);
#84=CARTESIAN_POINT('',(-27.500000000000021,39.0,-4.775965E-015));
#85=VERTEX_POINT('',#84);
#86=CARTESIAN_POINT('',(-27.500000000000021,0.0,0.0));
#87=DIRECTION('',(-1.0,0.0,0.0));
#88=DIRECTION('',(0.0,-1.0,0.0));
#89=AXIS2_PLACEMENT_3D('',#86,#87,#88);
#90=CIRCLE('',#89,39.0);
#91=EDGE_CURVE('',#85,#85,#90,.T.);
#92=ORIENTED_EDGE('',*,*,#91,.T.);
#93=EDGE_LOOP('',(#92));
#94=FACE_BOUND('',#93,.T.);
#95=ADVANCED_FACE('',(#83,#94),#72,.T.);
#96=CARTESIAN_POINT('',(-29.000000000000021,36.387822173508930,0.0));
#97=DIRECTION('',(-1.0,0.0,0.0));
#98=DIRECTION('',(0.0,0.0,1.0));
#99=AXIS2_PLACEMENT_3D('',#96,#97,#98);
#100=PLANE('',#99);
#101=ORIENTED_EDGE('',*,*,#80,.F.);
#102=EDGE_LOOP('',(#101));
#103=FACE_OUTER_BOUND('',#102,.T.);
#104=CARTESIAN_POINT('',(-29.000000000000021,33.775644347017867,0.0));
#105=VERTEX_POINT('',#104);
#106=CARTESIAN_POINT('',(-29.000000000000021,0.0,0.0));
#107=DIRECTION('',(1.0,0.0,0.0));
#108=DIRECTION('',(0.0,1.0,0.0));
#109=AXIS2_PLACEMENT_3D('',#106,#107,#108);
#110=CIRCLE('',#109,33.775644347017867);
#111=EDGE_CURVE('',#105,#105,#110,.T.);
#112=ORIENTED_EDGE('',*,*,#111,.T.);
#113=EDGE_LOOP('',(#112));
#114=FACE_BOUND('',#113,.T.);
#115=ADVANCED_FACE('',(#103,#114),#100,.T.);
#116=CARTESIAN_POINT('',(-22.000000000000021,0.0,0.0));
#117=DIRECTION('',(1.0,0.0,0.0));
#118=DIRECTION('',(0.0,1.0,0.0));
#119=AXIS2_PLACEMENT_3D('',#116,#117,#118);
#120=CYLINDRICAL_SURFACE('',#119,39.0);
#121=CARTESIAN_POINT('',(-15.000000000000020,39.0,0.0));
#122=VERTEX_POINT('',#121);
#123=CARTESIAN_POINT('',(-15.000000000000020,0.0,0.0));
#124=DIRECTION('',(1.0,0.0,0.0));
#125=DIRECTION('',(0.0,1.0,0.0));
#126=AXIS2_PLACEMENT_3D('',#123,#124,#125);
#127=CIRCLE('',#126,39.0);
#128=EDGE_CURVE('',#122,#122,#127,.T.);
#129=ORIENTED_EDGE('',*,*,#128,.F.);
#130=EDGE_LOOP('',(#129));
#131=FACE_OUTER_BOUND('',#130,.T.);
#132=ORIENTED_EDGE('',*,*,#91,.F.);
#133=EDGE_LOOP('',(#132));
#134=FACE_BOUND('',#133,.T.);
#135=ADVANCED_FACE('',(#131,#134),#120,.T.);
#136=CARTESIAN_POINT('',(-7.189798739590084,-2.265522E-015,18.499999999999996));
#137=CARTESIAN_POINT('',(-12.189798739590085,-2.265522E-015,18.499999999999996));
#138=CARTESIAN_POINT('',(-12.189798739590083,-2.877825E-015,23.499999999999996));
#139=CARTESIAN_POINT('',(-12.189798739590081,-3.490128E-015,28.499999999999996));
#140=CARTESIAN_POINT('',(-7.189798739590083,-3.490128E-015,28.499999999999996));
#141=CARTESIAN_POINT('',(-7.189798739590084,-18.499999999999996,18.499999999999989));
#142=CARTESIAN_POINT('',(-12.189798739590083,-18.499999999999996,18.499999999999989));
#143=CARTESIAN_POINT('',(-12.189798739590085,-23.499999999999996,23.499999999999986));
#144=CARTESIAN_POINT('',(-12.189798739590083,-28.499999999999993,28.499999999999986));
#145=CARTESIAN_POINT('',(-7.189798739590083,-28.499999999999993,28.499999999999986));
#146=CARTESIAN_POINT('',(-7.189798739590084,-18.499999999999996,-2.265522E-015));
#147=CARTESIAN_POINT('',(-12.189798739590085,-18.499999999999996,-2.265522E-015));
#148=CARTESIAN_POINT('',(-12.189798739590083,-23.499999999999996,-2.877825E-015));
#149=CARTESIAN_POINT('',(-12.189798739590081,-28.499999999999996,-3.490128E-015));
#150=CARTESIAN_POINT('',(-7.189798739590083,-28.499999999999996,-3.490128E-015));
#151=CARTESIAN_POINT('',(-7.189798739590084,-18.499999999999989,-18.499999999999996));
#152=CARTESIAN_POINT('',(-12.189798739590083,-18.499999999999989,-18.499999999999996));
#153=CARTESIAN_POINT('',(-12.189798739590085,-23.499999999999986,-23.499999999999996));
#154=CARTESIAN_POINT('',(-12.189798739590083,-28.499999999999986,-28.499999999999993));
#155=CARTESIAN_POINT('',(-7.189798739590083,-28.499999999999986,-28.499999999999993));
#156=CARTESIAN_POINT('',(-7.189798739590084,2.265522E-015,-18.499999999999996));
#157=CARTESIAN_POINT('',(-12.189798739590085,2.265522E-015,-18.499999999999996));
#158=CARTESIAN_POINT('',(-12.189798739590083,2.877825E-015,-23.499999999999996));
#159=CARTESIAN_POINT('',(-12.189798739590081,3.490128E-015,-28.499999999999996));
#160=CARTESIAN_POINT('',(-7.189798739590083,3.490128E-015,-28.499999999999996));
#161=CARTESIAN_POINT('',(-7.189798739590084,18.499999999999996,-18.499999999999989));
#162=CARTESIAN_POINT('',(-12.189798739590083,18.499999999999996,-18.499999999999989));
#163=CARTESIAN_POINT('',(-12.189798739590085,23.499999999999996,-23.499999999999986));
#164=CARTESIAN_POINT('',(-12.189798739590083,28.499999999999993,-28.499999999999986));
#165=CARTESIAN_POINT('',(-7.189798739590083,28.499999999999993,-28.499999999999986));
#166=CARTESIAN_POINT('',(-7.189798739590084,18.499999999999996,2.265522E-015));
#167=CARTESIAN_POINT('',(-12.189798739590085,18.499999999999996,2.265522E-015));
#168=CARTESIAN_POINT('',(-12.189798739590083,23.499999999999996,2.877825E-015));
#169=CARTESIAN_POINT('',(-12.189798739590081,28.499999999999996,3.490128E-015));
#170=CARTESIAN_POINT('',(-7.189798739590083,28.499999999999996,3.490128E-015));
#171=CARTESIAN_POINT('',(-7.189798739590084,18.499999999999989,18.499999999999996));
#172=CARTESIAN_POINT('',(-12.189798739590083,18.499999999999989,18.499999999999996));
#173=CARTESIAN_POINT('',(-12.189798739590085,23.499999999999986,23.499999999999996));
#174=CARTESIAN_POINT('',(-12.189798739590083,28.499999999999986,28.499999999999993));
#175=CARTESIAN_POINT('',(-7.189798739590083,28.499999999999986,28.499999999999993));
#176=CARTESIAN_POINT('',(-7.189798739590084,-2.265522E-015,18.499999999999996));
#177=CARTESIAN_POINT('',(-12.189798739590085,-2.265522E-015,18.499999999999996));
#178=CARTESIAN_POINT('',(-12.189798739590083,-2.877825E-015,23.499999999999996));
#179=CARTESIAN_POINT('',(-12.189798739590081,-3.490128E-015,28.499999999999996));
#180=CARTESIAN_POINT('',(-7.189798739590083,-3.490128E-015,28.499999999999996));
#188=(BOUNDED_SURFACE()B_SPLINE_SURFACE(2,2,((#136,#141,#146,#151,#156,#161,#166,#171,#176),(#137,#142,#147,#152,#157,#162,#167,#172,#177),(#138,#143,#148,#153,#158,#163,#168,#173,#178),(#139,#144,#149,#154,#159,#164,#169,#174,#179),(#140,#145,#150,#155,#160,#165,#170,#175,#180)),.UNSPECIFIED.,.F.,.T.,.U.)B_SPLINE_SURFACE_WITH_KNOTS((3,2,3),(3,2,2,2,3),(-3.141592653589793,-1.570796326794897,0.0),(0.0,1.570796326794897,3.141592653589793,4.712388980384690,6.283185307179586),.UNSPECIFIED.)GEOMETRIC_REPRESENTATION_ITEM()RATIONAL_B_SPLINE_SURFACE(((1.0,0.707106781186548,1.0,0.707106781186548,1.0,0.707106781186548,1.0,0.707106781186548,1.0),(0.707106781186548,0.500000000000000,0.707106781186548,0.500000000000000,0.707106781186548,0.500000000000000,0.707106781186548,0.500000000000000,0.707106781186548),(1.0,0.707106781186548,1.0,0.707106781186548,1.0,0.707106781186548,1.0,0.707106781186548,1.0),(0.707106781186548,0.500000000000000,0.707106781186548,0.500000000000000,0.707106781186548,0.500000000000000,0.707106781186548,0.500000000000000,0.707106781186548),(1.0,0.707106781186548,1.0,0.707106781186548,1.0,0.707106781186548,1.0,0.707106781186548,1.0)))REPRESENTATION_ITEM('')SURFACE());
#189=CARTESIAN_POINT('',(-12.113837504651123,22.631759111665346,-9.860761E-031));
#190=VERTEX_POINT('',#189);
#191=CARTESIAN_POINT('',(-12.113837504651123,0.0,-2.771500E-015));
#192=DIRECTION('',(1.0,0.0,0.0));
#193=DIRECTION('',(0.0,-1.0,0.0));
#194=AXIS2_PLACEMENT_3D('',#191,#192,#193);
#195=CIRCLE('',#194,22.631759111665346);
#196=EDGE_CURVE('',#190,#190,#195,.T.);
#197=ORIENTED_EDGE('',*,*,#196,.T.);
#198=EDGE_LOOP('',(#197));
#199=FACE_OUTER_BOUND('',#198,.T.);
#200=CARTESIAN_POINT('',(-7.189798739590083,18.500000000000000,-4.531044E-015));
#201=VERTEX_POINT('',#200);
#202=CARTESIAN_POINT('',(-7.189798739590083,0.0,0.0));
#203=DIRECTION('',(-1.0,0.0,0.0));
#204=DIRECTION('',(0.0,-1.0,0.0));
#205=AXIS2_PLACEMENT_3D('',#202,#203,#204);
#206=CIRCLE('',#205,18.500000000000000);
#207=EDGE_CURVE('',#201,#201,#206,.T.);
#208=ORIENTED_EDGE('',*,*,#207,.T.);
#209=EDGE_LOOP('',(#208));
#210=FACE_BOUND('',#209,.T.);
#211=ADVANCED_FACE('',(#199,#210),#188,.T.);
#212=CARTESIAN_POINT('',(-13.192648447738250,0.0,0.0));
#213=DIRECTION('',(-1.0,0.0,0.0));
#214=DIRECTION('',(0.0,1.0,0.0));
#215=AXIS2_PLACEMENT_3D('',#212,#213,#214);
#216=CONICAL_SURFACE('',#215,28.750000000000000,79.999999999999986);
#217=ORIENTED_EDGE('',*,*,#128,.T.);
#218=EDGE_LOOP('',(#217));
#219=FACE_OUTER_BOUND('',#218,.T.);
#220=ORIENTED_EDGE('',*,*,#196,.F.);
#221=EDGE_LOOP('',(#220));
#222=FACE_BOUND('',#221,.T.);
#223=ADVANCED_FACE('',(#219,#222),#216,.T.);
#224=CARTESIAN_POINT('',(-6.125661149630463,0.0,0.0));
#225=DIRECTION('',(1.0,0.0,0.0));
#226=DIRECTION('',(0.0,1.0,0.0));
#227=AXIS2_PLACEMENT_3D('',#224,#225,#226);
#228=CYLINDRICAL_SURFACE('',#227,18.500000000000000);
#229=CARTESIAN_POINT('',(-0.866025403784444,18.500000000000000,0.0));
#230=VERTEX_POINT('',#229);
#231=CARTESIAN_POINT('',(-0.866025403784444,0.0,0.0));
#232=DIRECTION('',(1.0,0.0,0.0));
#233=DIRECTION('',(0.0,1.0,0.0));
#234=AXIS2_PLACEMENT_3D('',#231,#232,#233);
#235=CIRCLE('',#234,18.500000000000000);
#236=EDGE_CURVE('',#230,#230,#235,.T.);
#237=ORIENTED_EDGE('',*,*,#236,.F.);
#238=EDGE_LOOP('',(#237));
#239=FACE_OUTER_BOUND('',#238,.T.);
#240=ORIENTED_EDGE('',*,*,#207,.F.);
#241=EDGE_LOOP('',(#240));
#242=FACE_BOUND('',#241,.T.);
#243=ADVANCED_FACE('',(#239,#242),#228,.T.);
#244=CARTESIAN_POINT('',(-17.500000000000021,0.0,0.0));
#245=DIRECTION('',(-1.0,0.0,0.0));
#246=DIRECTION('',(0.0,1.0,0.0));
#247=AXIS2_PLACEMENT_3D('',#244,#245,#246);
#248=CONICAL_SURFACE('',#247,20.500000000000000,45.000000000000021);
#249=CARTESIAN_POINT('',(-22.000000000000021,25.0,0.0));
#250=VERTEX_POINT('',#249);
#251=CARTESIAN_POINT('',(-22.000000000000021,0.0,0.0));
#252=DIRECTION('',(1.0,0.0,0.0));
#253=DIRECTION('',(0.0,1.0,0.0));
#254=AXIS2_PLACEMENT_3D('',#251,#252,#253);
#255=CIRCLE('',#254,25.0);
#256=EDGE_CURVE('',#250,#250,#255,.T.);
#257=ORIENTED_EDGE('',*,*,#256,.F.);
#258=EDGE_LOOP('',(#257));
#259=FACE_OUTER_BOUND('',#258,.T.);
#260=CARTESIAN_POINT('',(-13.000000000000025,16.0,0.0));
#261=VERTEX_POINT('',#260);
#262=CARTESIAN_POINT('',(-13.000000000000025,0.0,0.0));
#263=DIRECTION('',(1.0,0.0,0.0));
#264=DIRECTION('',(0.0,1.0,0.0));
#265=AXIS2_PLACEMENT_3D('',#262,#263,#264);
#266=CIRCLE('',#265,16.0);
#267=EDGE_CURVE('',#261,#261,#266,.T.);
#268=ORIENTED_EDGE('',*,*,#267,.T.);
#269=EDGE_LOOP('',(#268));
#270=FACE_BOUND('',#269,.T.);
#271=ADVANCED_FACE('',(#259,#270),#248,.F.);
#272=CARTESIAN_POINT('',(-22.000000000000021,25.999999999999996,0.0));
#273=DIRECTION('',(-1.0,0.0,0.0));
#274=DIRECTION('',(0.0,0.0,1.0));
#275=AXIS2_PLACEMENT_3D('',#272,#273,#274);
#276=PLANE('',#275);
#277=CARTESIAN_POINT('',(-22.000000000000021,26.999999999999996,0.0));
#278=VERTEX_POINT('',#277);
#279=CARTESIAN_POINT('',(-22.000000000000021,0.0,0.0));
#280=DIRECTION('',(1.0,0.0,0.0));
#281=DIRECTION('',(0.0,1.0,0.0));
#282=AXIS2_PLACEMENT_3D('',#279,#280,#281);
#283=CIRCLE('',#282,26.999999999999996);
#284=EDGE_CURVE('',#278,#278,#283,.T.);
#285=ORIENTED_EDGE('',*,*,#284,.F.);
#286=EDGE_LOOP('',(#285));
#287=FACE_OUTER_BOUND('',#286,.T.);
#288=ORIENTED_EDGE('',*,*,#256,.T.);
#289=EDGE_LOOP('',(#288));
#290=FACE_BOUND('',#289,.T.);
#291=ADVANCED_FACE('',(#287,#290),#276,.T.);
#292=CARTESIAN_POINT('',(-20.250000000000018,0.0,0.0));
#293=DIRECTION('',(1.0,0.0,0.0));
#294=DIRECTION('',(0.0,1.0,0.0));
#295=AXIS2_PLACEMENT_3D('',#292,#293,#294);
#296=CYLINDRICAL_SURFACE('',#295,26.999999999999996);
#297=CARTESIAN_POINT('',(-18.500000000000014,26.999999999999996,0.0));
#298=VERTEX_POINT('',#297);
#299=CARTESIAN_POINT('',(-18.500000000000014,0.0,0.0));
#300=DIRECTION('',(1.0,0.0,0.0));
#301=DIRECTION('',(0.0,1.0,0.0));
#302=AXIS2_PLACEMENT_3D('',#299,#300,#301);
#303=CIRCLE('',#302,26.999999999999996);
#304=EDGE_CURVE('',#298,#298,#303,.T.);
#305=ORIENTED_EDGE('',*,*,#304,.F.);
#306=EDGE_LOOP('',(#305));
#307=FACE_OUTER_BOUND('',#306,.T.);
#308=ORIENTED_EDGE('',*,*,#284,.T.);
#309=EDGE_LOOP('',(#308));
#310=FACE_BOUND('',#309,.T.);
#311=ADVANCED_FACE('',(#307,#310),#296,.T.);
#312=CARTESIAN_POINT('',(-18.500000000000014,29.450000000000003,0.0));
#313=DIRECTION('',(-1.0,0.0,0.0));
#314=DIRECTION('',(0.0,0.0,1.0));
#315=AXIS2_PLACEMENT_3D('',#312,#313,#314);
#316=PLANE('',#315);
#317=CARTESIAN_POINT('',(-18.500000000000018,31.900000000000006,0.0));
#318=VERTEX_POINT('',#317);
#319=CARTESIAN_POINT('',(-18.500000000000018,0.0,0.0));
#320=DIRECTION('',(1.0,0.0,0.0));
#321=DIRECTION('',(0.0,1.0,0.0));
#322=AXIS2_PLACEMENT_3D('',#319,#320,#321);
#323=CIRCLE('',#322,31.900000000000006);
#324=EDGE_CURVE('',#318,#318,#323,.T.);
#325=ORIENTED_EDGE('',*,*,#324,.F.);
#326=EDGE_LOOP('',(#325));
#327=FACE_OUTER_BOUND('',#326,.T.);
#328=ORIENTED_EDGE('',*,*,#304,.T.);
#329=EDGE_LOOP('',(#328));
#330=FACE_BOUND('',#329,.T.);
#331=ADVANCED_FACE('',(#327,#330),#316,.T.);
#332=CARTESIAN_POINT('',(-20.250000000000018,0.0,0.0));
#333=DIRECTION('',(1.0,0.0,0.0));
#334=DIRECTION('',(0.0,1.0,0.0));
#335=AXIS2_PLACEMENT_3D('',#332,#333,#334);
#336=CYLINDRICAL_SURFACE('',#335,31.900000000000006);
#337=CARTESIAN_POINT('',(-22.000000000000014,31.900000000000006,0.0));
#338=VERTEX_POINT('',#337);
#339=CARTESIAN_POINT('',(-22.000000000000014,0.0,0.0));
#340=DIRECTION('',(1.0,0.0,0.0));
#341=DIRECTION('',(0.0,1.0,0.0));
#342=AXIS2_PLACEMENT_3D('',#339,#340,#341);
#343=CIRCLE('',#342,31.900000000000006);
#344=EDGE_CURVE('',#338,#338,#343,.T.);
#345=ORIENTED_EDGE('',*,*,#344,.F.);
#346=EDGE_LOOP('',(#345));
#347=FACE_OUTER_BOUND('',#346,.T.);
#348=ORIENTED_EDGE('',*,*,#324,.T.);
#349=EDGE_LOOP('',(#348));
#350=FACE_BOUND('',#349,.T.);
#351=ADVANCED_FACE('',(#347,#350),#336,.F.);
#352=CARTESIAN_POINT('',(-25.500000000000014,0.0,0.0));
#353=DIRECTION('',(-1.0,0.0,0.0));
#354=DIRECTION('',(0.0,1.0,0.0));
#355=AXIS2_PLACEMENT_3D('',#352,#353,#354);
#356=CONICAL_SURFACE('',#355,32.837822173508933,15.000000000000009);
#357=ORIENTED_EDGE('',*,*,#111,.F.);
#358=EDGE_LOOP('',(#357));
#359=FACE_OUTER_BOUND('',#358,.T.);
#360=ORIENTED_EDGE('',*,*,#344,.T.);
#361=EDGE_LOOP('',(#360));
#362=FACE_BOUND('',#361,.T.);
#363=ADVANCED_FACE('',(#359,#362),#356,.F.);
#364=CARTESIAN_POINT('',(-0.433012701892225,0.0,0.0));
#365=DIRECTION('',(-1.0,0.0,0.0));
#366=DIRECTION('',(0.0,1.0,0.0));
#367=AXIS2_PLACEMENT_3D('',#364,#365,#366);
#368=CONICAL_SURFACE('',#367,17.750000000000000,59.999999999999993);
#369=CARTESIAN_POINT('',(-5.551115E-015,17.0,0.0));
#370=VERTEX_POINT('',#369);
#371=CARTESIAN_POINT('',(-5.551115E-015,0.0,0.0));
#372=DIRECTION('',(1.0,0.0,0.0));
#373=DIRECTION('',(0.0,1.0,0.0));
#374=AXIS2_PLACEMENT_3D('',#371,#372,#373);
#375=CIRCLE('',#374,17.0);
#376=EDGE_CURVE('',#370,#370,#375,.T.);
#377=ORIENTED_EDGE('',*,*,#376,.F.);
#378=EDGE_LOOP('',(#377));
#379=FACE_OUTER_BOUND('',#378,.T.);
#380=ORIENTED_EDGE('',*,*,#236,.T.);
#381=EDGE_LOOP('',(#380));
#382=FACE_BOUND('',#381,.T.);
#383=ADVANCED_FACE('',(#379,#382),#368,.T.);
#384=CARTESIAN_POINT('',(-4.996004E-015,16.500000000000004,0.0));
#385=DIRECTION('',(1.0,0.0,0.0));
#386=DIRECTION('',(0.0,0.0,-1.0));
#387=AXIS2_PLACEMENT_3D('',#384,#385,#386);
#388=PLANE('',#387);
#389=ORIENTED_EDGE('',*,*,#376,.T.);
#390=EDGE_LOOP('',(#389));
#391=FACE_OUTER_BOUND('',#390,.T.);
#392=CARTESIAN_POINT('',(-4.440892E-015,16.000000000000004,0.0));
#393=VERTEX_POINT('',#392);
#394=CARTESIAN_POINT('',(-4.440892E-015,0.0,0.0));
#395=DIRECTION('',(1.0,0.0,0.0));
#396=DIRECTION('',(0.0,1.0,0.0));
#397=AXIS2_PLACEMENT_3D('',#394,#395,#396);
#398=CIRCLE('',#397,16.000000000000004);
#399=EDGE_CURVE('',#393,#393,#398,.T.);
#400=ORIENTED_EDGE('',*,*,#399,.F.);
#401=EDGE_LOOP('',(#400));
#402=FACE_BOUND('',#401,.T.);
#403=ADVANCED_FACE('',(#391,#402),#388,.T.);
#404=CARTESIAN_POINT('',(-6.500000000000014,0.0,0.0));
#405=DIRECTION('',(1.0,0.0,0.0));
#406=DIRECTION('',(0.0,1.0,0.0));
#407=AXIS2_PLACEMENT_3D('',#404,#405,#406);
#408=CYLINDRICAL_SURFACE('',#407,16.0);
#409=ORIENTED_EDGE('',*,*,#267,.F.);
#410=EDGE_LOOP('',(#409));
#411=FACE_OUTER_BOUND('',#410,.T.);
#412=ORIENTED_EDGE('',*,*,#399,.T.);
#413=EDGE_LOOP('',(#412));
#414=FACE_BOUND('',#413,.T.);
#415=ADVANCED_FACE('',(#411,#414),#408,.F.);
#416=CLOSED_SHELL('',(#95,#115,#135,#211,#223,#243,#271,#291,#311,#331,#351,#363,#383,#403,#415));
#417=MANIFOLD_SOLID_BREP('',#416);
#418=COLOUR_RGB('Metall - Stahl',0.639216005802155,0.639216005802155,0.686275005340576);
#419=FILL_AREA_STYLE_COLOUR('Metall - Stahl',#418);
#420=FILL_AREA_STYLE('Metall - Stahl',(#419));
#421=SURFACE_STYLE_FILL_AREA(#420);
#422=SURFACE_SIDE_STYLE('Metall - Stahl',(#421));
#423=SURFACE_STYLE_USAGE(.BOTH.,#422);
#424=PRESENTATION_STYLE_ASSIGNMENT((#423));
#425=STYLED_ITEM('',(#424),#417);
#426=MECHANICAL_DESIGN_GEOMETRIC_PRESENTATION_REPRESENTATION('',(#425),#36);
#427=ADVANCED_BREP_SHAPE_REPRESENTATION('ABSR',(#417),#36);
#428=SHAPE_REPRESENTATION_RELATIONSHIP('SRR','None',#427,#41);
ENDSEC;
END-ISO-10303-21;
