ISO-10303-21;
HEADER;
/* Generated by software containing ST-Developer
 * from STEP Tools, Inc. (www.steptools.com) 
 */

FILE_DESCRIPTION(
/* description */ (''),
/* implementation_level */ '2;1');

FILE_NAME(
/* name */ 'Z:\\Geberit\\Export\\NewStep\\34122.stp',
/* time_stamp */ '2014-04-01T20:30:51+02:00',
/* author */ ('bruh'),
/* organization */ (''),
/* preprocessor_version */ 'ST-DEVELOPER v15.2',
/* originating_system */ 'Autodesk Inventor 2014',
/* authorisation */ '');

FILE_SCHEMA (('AUTOMOTIVE_DESIGN { 1 0 10303 214 3 1 1 }'));
ENDSEC;

DATA;
#10=ITEM_DEFINED_TRANSFORMATION($,$,#261,#307);
#11=(
REPRESENTATION_RELATIONSHIP($,$,#486,#487)
REPRESENTATION_RELATIONSHIP_WITH_TRANSFORMATION(#10)
SHAPE_REPRESENTATION_RELATIONSHIP()
);
#12=CONTEXT_DEPENDENT_SHAPE_REPRESENTATION(#11,#485);
#13=NEXT_ASSEMBLY_USAGE_OCCURRENCE('432111:1',$,$,#490,#489,$);
#14=SHAPE_REPRESENTATION_RELATIONSHIP('SRR','None',#486,#15);
#15=ADVANCED_BREP_SHAPE_REPRESENTATION($,(#260),#473);
#16=STYLED_ITEM($,(#498),#260);
#17=CYLINDRICAL_SURFACE($,#280,55.2);
#18=CYLINDRICAL_SURFACE($,#290,56.4);
#19=CYLINDRICAL_SURFACE($,#291,54.4);
#20=CYLINDRICAL_SURFACE($,#303,55.2);
#21=CONICAL_SURFACE($,#267,60.8016315039427,34.);
#22=CONICAL_SURFACE($,#272,59.1850082374603,34.0000000000001);
#23=CONICAL_SURFACE($,#278,55.3999999999998,44.9999999999657);
#24=CONICAL_SURFACE($,#282,55.4000000000002,45.0000000000331);
#25=CONICAL_SURFACE($,#288,60.8016315039427,34.);
#26=CONICAL_SURFACE($,#295,59.1850082374603,34.0000000000001);
#27=CONICAL_SURFACE($,#301,55.3999999999998,44.9999999999657);
#28=CONICAL_SURFACE($,#305,55.4000000000002,45.0000000000331);
#29=TOROIDAL_SURFACE($,#265,59.4,7.);
#30=TOROIDAL_SURFACE($,#269,56.4,2.);
#31=TOROIDAL_SURFACE($,#274,59.4,5.1);
#32=TOROIDAL_SURFACE($,#286,59.4,7.);
#33=TOROIDAL_SURFACE($,#293,56.4,2.);
#34=TOROIDAL_SURFACE($,#297,59.4,5.1);
#35=FACE_BOUND($,#80,.T.);
#36=FACE_BOUND($,#82,.T.);
#37=FACE_BOUND($,#84,.T.);
#38=FACE_BOUND($,#86,.T.);
#39=FACE_BOUND($,#88,.T.);
#40=FACE_BOUND($,#90,.T.);
#41=FACE_BOUND($,#91,.T.);
#42=FACE_BOUND($,#92,.T.);
#43=FACE_BOUND($,#94,.T.);
#44=FACE_BOUND($,#96,.T.);
#45=FACE_BOUND($,#98,.T.);
#46=FACE_BOUND($,#100,.T.);
#47=FACE_BOUND($,#102,.T.);
#48=FACE_BOUND($,#104,.T.);
#49=FACE_BOUND($,#106,.T.);
#50=FACE_BOUND($,#108,.T.);
#51=FACE_BOUND($,#110,.T.);
#52=FACE_BOUND($,#112,.T.);
#53=FACE_BOUND($,#114,.T.);
#54=FACE_BOUND($,#115,.T.);
#55=FACE_BOUND($,#116,.T.);
#56=FACE_BOUND($,#118,.T.);
#57=FACE_BOUND($,#120,.T.);
#58=FACE_BOUND($,#122,.T.);
#59=FACE_OUTER_BOUND($,#79,.T.);
#60=FACE_OUTER_BOUND($,#81,.T.);
#61=FACE_OUTER_BOUND($,#83,.T.);
#62=FACE_OUTER_BOUND($,#85,.T.);
#63=FACE_OUTER_BOUND($,#87,.T.);
#64=FACE_OUTER_BOUND($,#89,.T.);
#65=FACE_OUTER_BOUND($,#93,.T.);
#66=FACE_OUTER_BOUND($,#95,.T.);
#67=FACE_OUTER_BOUND($,#97,.T.);
#68=FACE_OUTER_BOUND($,#99,.T.);
#69=FACE_OUTER_BOUND($,#101,.T.);
#70=FACE_OUTER_BOUND($,#103,.T.);
#71=FACE_OUTER_BOUND($,#105,.T.);
#72=FACE_OUTER_BOUND($,#107,.T.);
#73=FACE_OUTER_BOUND($,#109,.T.);
#74=FACE_OUTER_BOUND($,#111,.T.);
#75=FACE_OUTER_BOUND($,#113,.T.);
#76=FACE_OUTER_BOUND($,#117,.T.);
#77=FACE_OUTER_BOUND($,#119,.T.);
#78=FACE_OUTER_BOUND($,#121,.T.);
#79=EDGE_LOOP($,(#189));
#80=EDGE_LOOP($,(#190));
#81=EDGE_LOOP($,(#191));
#82=EDGE_LOOP($,(#192));
#83=EDGE_LOOP($,(#193));
#84=EDGE_LOOP($,(#194));
#85=EDGE_LOOP($,(#195));
#86=EDGE_LOOP($,(#196));
#87=EDGE_LOOP($,(#197));
#88=EDGE_LOOP($,(#198));
#89=EDGE_LOOP($,(#199));
#90=EDGE_LOOP($,(#200));
#91=EDGE_LOOP($,(#201));
#92=EDGE_LOOP($,(#202));
#93=EDGE_LOOP($,(#203));
#94=EDGE_LOOP($,(#204));
#95=EDGE_LOOP($,(#205));
#96=EDGE_LOOP($,(#206));
#97=EDGE_LOOP($,(#207));
#98=EDGE_LOOP($,(#208));
#99=EDGE_LOOP($,(#209));
#100=EDGE_LOOP($,(#210));
#101=EDGE_LOOP($,(#211));
#102=EDGE_LOOP($,(#212));
#103=EDGE_LOOP($,(#213));
#104=EDGE_LOOP($,(#214));
#105=EDGE_LOOP($,(#215));
#106=EDGE_LOOP($,(#216));
#107=EDGE_LOOP($,(#217));
#108=EDGE_LOOP($,(#218));
#109=EDGE_LOOP($,(#219));
#110=EDGE_LOOP($,(#220));
#111=EDGE_LOOP($,(#221));
#112=EDGE_LOOP($,(#222));
#113=EDGE_LOOP($,(#223));
#114=EDGE_LOOP($,(#224));
#115=EDGE_LOOP($,(#225));
#116=EDGE_LOOP($,(#226));
#117=EDGE_LOOP($,(#227));
#118=EDGE_LOOP($,(#228));
#119=EDGE_LOOP($,(#229));
#120=EDGE_LOOP($,(#230));
#121=EDGE_LOOP($,(#231));
#122=EDGE_LOOP($,(#232));
#123=CIRCLE($,#263,59.4);
#124=CIRCLE($,#264,55.6000000000004);
#125=CIRCLE($,#266,65.2032630078853);
#126=CIRCLE($,#268,56.4);
#127=CIRCLE($,#270,54.7419248548899);
#128=CIRCLE($,#271,54.4);
#129=CIRCLE($,#273,63.6280916200307);
#130=CIRCLE($,#275,59.4);
#131=CIRCLE($,#277,55.5999999999996);
#132=CIRCLE($,#279,55.2);
#133=CIRCLE($,#281,55.2);
#134=CIRCLE($,#284,59.4);
#135=CIRCLE($,#285,55.6000000000004);
#136=CIRCLE($,#287,65.2032630078853);
#137=CIRCLE($,#289,56.4);
#138=CIRCLE($,#292,54.4);
#139=CIRCLE($,#294,54.7419248548899);
#140=CIRCLE($,#296,63.6280916200307);
#141=CIRCLE($,#298,59.4);
#142=CIRCLE($,#300,55.5999999999996);
#143=CIRCLE($,#302,55.2);
#144=CIRCLE($,#304,55.2);
#145=VERTEX_POINT($,#404);
#146=VERTEX_POINT($,#406);
#147=VERTEX_POINT($,#409);
#148=VERTEX_POINT($,#412);
#149=VERTEX_POINT($,#415);
#150=VERTEX_POINT($,#417);
#151=VERTEX_POINT($,#420);
#152=VERTEX_POINT($,#423);
#153=VERTEX_POINT($,#426);
#154=VERTEX_POINT($,#429);
#155=VERTEX_POINT($,#432);
#156=VERTEX_POINT($,#436);
#157=VERTEX_POINT($,#438);
#158=VERTEX_POINT($,#441);
#159=VERTEX_POINT($,#444);
#160=VERTEX_POINT($,#448);
#161=VERTEX_POINT($,#451);
#162=VERTEX_POINT($,#454);
#163=VERTEX_POINT($,#457);
#164=VERTEX_POINT($,#460);
#165=VERTEX_POINT($,#463);
#166=VERTEX_POINT($,#466);
#167=EDGE_CURVE($,#145,#145,#123,.T.);
#168=EDGE_CURVE($,#146,#146,#124,.T.);
#169=EDGE_CURVE($,#147,#147,#125,.T.);
#170=EDGE_CURVE($,#148,#148,#126,.T.);
#171=EDGE_CURVE($,#149,#149,#127,.T.);
#172=EDGE_CURVE($,#150,#150,#128,.T.);
#173=EDGE_CURVE($,#151,#151,#129,.T.);
#174=EDGE_CURVE($,#152,#152,#130,.T.);
#175=EDGE_CURVE($,#153,#153,#131,.T.);
#176=EDGE_CURVE($,#154,#154,#132,.T.);
#177=EDGE_CURVE($,#155,#155,#133,.T.);
#178=EDGE_CURVE($,#156,#156,#134,.T.);
#179=EDGE_CURVE($,#157,#157,#135,.T.);
#180=EDGE_CURVE($,#158,#158,#136,.T.);
#181=EDGE_CURVE($,#159,#159,#137,.T.);
#182=EDGE_CURVE($,#160,#160,#138,.T.);
#183=EDGE_CURVE($,#161,#161,#139,.T.);
#184=EDGE_CURVE($,#162,#162,#140,.T.);
#185=EDGE_CURVE($,#163,#163,#141,.T.);
#186=EDGE_CURVE($,#164,#164,#142,.T.);
#187=EDGE_CURVE($,#165,#165,#143,.T.);
#188=EDGE_CURVE($,#166,#166,#144,.T.);
#189=ORIENTED_EDGE($,*,*,#167,.T.);
#190=ORIENTED_EDGE($,*,*,#168,.F.);
#191=ORIENTED_EDGE($,*,*,#169,.T.);
#192=ORIENTED_EDGE($,*,*,#167,.F.);
#193=ORIENTED_EDGE($,*,*,#170,.T.);
#194=ORIENTED_EDGE($,*,*,#169,.F.);
#195=ORIENTED_EDGE($,*,*,#171,.T.);
#196=ORIENTED_EDGE($,*,*,#172,.F.);
#197=ORIENTED_EDGE($,*,*,#173,.T.);
#198=ORIENTED_EDGE($,*,*,#171,.F.);
#199=ORIENTED_EDGE($,*,*,#174,.T.);
#200=ORIENTED_EDGE($,*,*,#173,.F.);
#201=ORIENTED_EDGE($,*,*,#175,.T.);
#202=ORIENTED_EDGE($,*,*,#174,.F.);
#203=ORIENTED_EDGE($,*,*,#176,.T.);
#204=ORIENTED_EDGE($,*,*,#175,.F.);
#205=ORIENTED_EDGE($,*,*,#177,.T.);
#206=ORIENTED_EDGE($,*,*,#176,.F.);
#207=ORIENTED_EDGE($,*,*,#168,.T.);
#208=ORIENTED_EDGE($,*,*,#177,.F.);
#209=ORIENTED_EDGE($,*,*,#178,.F.);
#210=ORIENTED_EDGE($,*,*,#179,.T.);
#211=ORIENTED_EDGE($,*,*,#180,.F.);
#212=ORIENTED_EDGE($,*,*,#178,.T.);
#213=ORIENTED_EDGE($,*,*,#181,.F.);
#214=ORIENTED_EDGE($,*,*,#180,.T.);
#215=ORIENTED_EDGE($,*,*,#170,.F.);
#216=ORIENTED_EDGE($,*,*,#181,.T.);
#217=ORIENTED_EDGE($,*,*,#172,.T.);
#218=ORIENTED_EDGE($,*,*,#182,.F.);
#219=ORIENTED_EDGE($,*,*,#183,.F.);
#220=ORIENTED_EDGE($,*,*,#182,.T.);
#221=ORIENTED_EDGE($,*,*,#184,.F.);
#222=ORIENTED_EDGE($,*,*,#183,.T.);
#223=ORIENTED_EDGE($,*,*,#185,.F.);
#224=ORIENTED_EDGE($,*,*,#184,.T.);
#225=ORIENTED_EDGE($,*,*,#186,.F.);
#226=ORIENTED_EDGE($,*,*,#185,.T.);
#227=ORIENTED_EDGE($,*,*,#187,.F.);
#228=ORIENTED_EDGE($,*,*,#186,.T.);
#229=ORIENTED_EDGE($,*,*,#188,.F.);
#230=ORIENTED_EDGE($,*,*,#187,.T.);
#231=ORIENTED_EDGE($,*,*,#179,.F.);
#232=ORIENTED_EDGE($,*,*,#188,.T.);
#233=PLANE($,#262);
#234=PLANE($,#276);
#235=PLANE($,#283);
#236=PLANE($,#299);
#237=ADVANCED_FACE($,(#59,#35),#233,.F.);
#238=ADVANCED_FACE($,(#60,#36),#29,.T.);
#239=ADVANCED_FACE($,(#61,#37),#21,.T.);
#240=ADVANCED_FACE($,(#62,#38),#30,.T.);
#241=ADVANCED_FACE($,(#63,#39),#22,.F.);
#242=ADVANCED_FACE($,(#64,#40),#31,.F.);
#243=ADVANCED_FACE($,(#41,#42),#234,.F.);
#244=ADVANCED_FACE($,(#65,#43),#23,.F.);
#245=ADVANCED_FACE($,(#66,#44),#17,.F.);
#246=ADVANCED_FACE($,(#67,#45),#24,.F.);
#247=ADVANCED_FACE($,(#68,#46),#235,.T.);
#248=ADVANCED_FACE($,(#69,#47),#32,.T.);
#249=ADVANCED_FACE($,(#70,#48),#25,.T.);
#250=ADVANCED_FACE($,(#71,#49),#18,.T.);
#251=ADVANCED_FACE($,(#72,#50),#19,.F.);
#252=ADVANCED_FACE($,(#73,#51),#33,.T.);
#253=ADVANCED_FACE($,(#74,#52),#26,.F.);
#254=ADVANCED_FACE($,(#75,#53),#34,.F.);
#255=ADVANCED_FACE($,(#54,#55),#236,.T.);
#256=ADVANCED_FACE($,(#76,#56),#27,.F.);
#257=ADVANCED_FACE($,(#77,#57),#20,.F.);
#258=ADVANCED_FACE($,(#78,#58),#28,.F.);
#259=CLOSED_SHELL($,(#237,#238,#239,#240,#241,#242,#243,#244,#245,#246,
#247,#248,#249,#250,#251,#252,#253,#254,#255,#256,#257,#258));
#260=MANIFOLD_SOLID_BREP('Volumenk\X\F6rper1',#259);
#261=AXIS2_PLACEMENT_3D('placement',#402,#308,#309);
#262=AXIS2_PLACEMENT_3D($,#403,#310,#311);
#263=AXIS2_PLACEMENT_3D($,#405,#312,#313);
#264=AXIS2_PLACEMENT_3D($,#407,#314,#315);
#265=AXIS2_PLACEMENT_3D($,#408,#316,#317);
#266=AXIS2_PLACEMENT_3D($,#410,#318,#319);
#267=AXIS2_PLACEMENT_3D($,#411,#320,#321);
#268=AXIS2_PLACEMENT_3D($,#413,#322,#323);
#269=AXIS2_PLACEMENT_3D($,#414,#324,#325);
#270=AXIS2_PLACEMENT_3D($,#416,#326,#327);
#271=AXIS2_PLACEMENT_3D($,#418,#328,#329);
#272=AXIS2_PLACEMENT_3D($,#419,#330,#331);
#273=AXIS2_PLACEMENT_3D($,#421,#332,#333);
#274=AXIS2_PLACEMENT_3D($,#422,#334,#335);
#275=AXIS2_PLACEMENT_3D($,#424,#336,#337);
#276=AXIS2_PLACEMENT_3D($,#425,#338,#339);
#277=AXIS2_PLACEMENT_3D($,#427,#340,#341);
#278=AXIS2_PLACEMENT_3D($,#428,#342,#343);
#279=AXIS2_PLACEMENT_3D($,#430,#344,#345);
#280=AXIS2_PLACEMENT_3D($,#431,#346,#347);
#281=AXIS2_PLACEMENT_3D($,#433,#348,#349);
#282=AXIS2_PLACEMENT_3D($,#434,#350,#351);
#283=AXIS2_PLACEMENT_3D($,#435,#352,#353);
#284=AXIS2_PLACEMENT_3D($,#437,#354,#355);
#285=AXIS2_PLACEMENT_3D($,#439,#356,#357);
#286=AXIS2_PLACEMENT_3D($,#440,#358,#359);
#287=AXIS2_PLACEMENT_3D($,#442,#360,#361);
#288=AXIS2_PLACEMENT_3D($,#443,#362,#363);
#289=AXIS2_PLACEMENT_3D($,#445,#364,#365);
#290=AXIS2_PLACEMENT_3D($,#446,#366,#367);
#291=AXIS2_PLACEMENT_3D($,#447,#368,#369);
#292=AXIS2_PLACEMENT_3D($,#449,#370,#371);
#293=AXIS2_PLACEMENT_3D($,#450,#372,#373);
#294=AXIS2_PLACEMENT_3D($,#452,#374,#375);
#295=AXIS2_PLACEMENT_3D($,#453,#376,#377);
#296=AXIS2_PLACEMENT_3D($,#455,#378,#379);
#297=AXIS2_PLACEMENT_3D($,#456,#380,#381);
#298=AXIS2_PLACEMENT_3D($,#458,#382,#383);
#299=AXIS2_PLACEMENT_3D($,#459,#384,#385);
#300=AXIS2_PLACEMENT_3D($,#461,#386,#387);
#301=AXIS2_PLACEMENT_3D($,#462,#388,#389);
#302=AXIS2_PLACEMENT_3D($,#464,#390,#391);
#303=AXIS2_PLACEMENT_3D($,#465,#392,#393);
#304=AXIS2_PLACEMENT_3D($,#467,#394,#395);
#305=AXIS2_PLACEMENT_3D($,#468,#396,#397);
#306=AXIS2_PLACEMENT_3D('placement',#469,#398,#399);
#307=AXIS2_PLACEMENT_3D($,#470,#400,#401);
#308=DIRECTION('axis',(0.,0.,1.));
#309=DIRECTION('refdir',(1.,0.,0.));
#310=DIRECTION('center_axis',(-1.,0.,1.77479635788797E-013));
#311=DIRECTION('ref_axis',(1.76214598468505E-013,0.,1.));
#312=DIRECTION('center_axis',(1.,0.,-1.77479635788797E-013));
#313=DIRECTION('ref_axis',(1.77637255838043E-013,0.,1.));
#314=DIRECTION('center_axis',(1.,0.,-1.77479635788797E-013));
#315=DIRECTION('ref_axis',(1.77637255838043E-013,0.,1.));
#316=DIRECTION('center_axis',(-1.,0.,1.77479635788797E-013));
#317=DIRECTION('ref_axis',(-1.77635683940025E-013,0.,-1.));
#318=DIRECTION('center_axis',(1.,0.,-1.77479635788797E-013));
#319=DIRECTION('ref_axis',(1.77637255838043E-013,0.,1.));
#320=DIRECTION('center_axis',(1.,0.,-1.77479635788797E-013));
#321=DIRECTION('ref_axis',(1.77637255838043E-013,0.,1.));
#322=DIRECTION('center_axis',(1.,0.,-1.77479635788797E-013));
#323=DIRECTION('ref_axis',(1.77637255838043E-013,0.,1.));
#324=DIRECTION('center_axis',(-1.,0.,1.77479635788797E-013));
#325=DIRECTION('ref_axis',(-1.7714901083334E-013,0.,-1.));
#326=DIRECTION('center_axis',(1.,0.,-1.77479635788797E-013));
#327=DIRECTION('ref_axis',(1.77637255838043E-013,0.,1.));
#328=DIRECTION('center_axis',(1.,0.,-1.77479635788797E-013));
#329=DIRECTION('ref_axis',(1.77637255838043E-013,0.,1.));
#330=DIRECTION('center_axis',(1.,0.,-1.77479635788797E-013));
#331=DIRECTION('ref_axis',(1.77637255838043E-013,0.,1.));
#332=DIRECTION('center_axis',(1.,0.,-1.77479635788797E-013));
#333=DIRECTION('ref_axis',(1.77637255838043E-013,0.,1.));
#334=DIRECTION('center_axis',(-1.,0.,1.77479635788797E-013));
#335=DIRECTION('ref_axis',(-1.77580603107796E-013,0.,-1.));
#336=DIRECTION('center_axis',(1.,0.,-1.77479635788797E-013));
#337=DIRECTION('ref_axis',(1.77637255838043E-013,0.,1.));
#338=DIRECTION('center_axis',(1.,0.,-1.77479635788797E-013));
#339=DIRECTION('ref_axis',(-1.76214598468505E-013,0.,-1.));
#340=DIRECTION('center_axis',(1.,0.,-1.77479635788797E-013));
#341=DIRECTION('ref_axis',(1.77637255838043E-013,0.,1.));
#342=DIRECTION('center_axis',(-1.,0.,1.77479635788797E-013));
#343=DIRECTION('ref_axis',(1.77637255838043E-013,0.,1.));
#344=DIRECTION('center_axis',(1.,0.,-1.77479635788797E-013));
#345=DIRECTION('ref_axis',(1.77637255838043E-013,0.,1.));
#346=DIRECTION('center_axis',(1.,0.,-1.77479635788797E-013));
#347=DIRECTION('ref_axis',(1.77637255838043E-013,0.,1.));
#348=DIRECTION('center_axis',(1.,0.,-1.77479635788797E-013));
#349=DIRECTION('ref_axis',(1.77637255838043E-013,0.,1.));
#350=DIRECTION('center_axis',(1.,0.,-1.77479635788797E-013));
#351=DIRECTION('ref_axis',(1.77637255838043E-013,0.,1.));
#352=DIRECTION('center_axis',(-1.,0.,-1.77479635788797E-013));
#353=DIRECTION('ref_axis',(-1.76214598468505E-013,0.,1.));
#354=DIRECTION('center_axis',(1.,0.,1.77479635788797E-013));
#355=DIRECTION('ref_axis',(-1.77637255838043E-013,0.,1.));
#356=DIRECTION('center_axis',(1.,0.,1.77479635788797E-013));
#357=DIRECTION('ref_axis',(-1.77637255838043E-013,0.,1.));
#358=DIRECTION('center_axis',(1.,0.,1.77479635788797E-013));
#359=DIRECTION('ref_axis',(1.77635683940025E-013,0.,-1.));
#360=DIRECTION('center_axis',(1.,0.,1.77479635788797E-013));
#361=DIRECTION('ref_axis',(-1.77637255838043E-013,0.,1.));
#362=DIRECTION('center_axis',(-1.,0.,-1.77479635788797E-013));
#363=DIRECTION('ref_axis',(-1.77637255838043E-013,0.,1.));
#364=DIRECTION('center_axis',(1.,0.,1.77479635788797E-013));
#365=DIRECTION('ref_axis',(-1.77637255838043E-013,0.,1.));
#366=DIRECTION('center_axis',(1.,0.,1.77479635788797E-013));
#367=DIRECTION('ref_axis',(-1.77637255838043E-013,0.,1.));
#368=DIRECTION('center_axis',(1.,0.,1.77479635788797E-013));
#369=DIRECTION('ref_axis',(-1.77637255838043E-013,0.,1.));
#370=DIRECTION('center_axis',(1.,0.,1.77479635788797E-013));
#371=DIRECTION('ref_axis',(-1.77637255838043E-013,0.,1.));
#372=DIRECTION('center_axis',(1.,0.,1.77479635788797E-013));
#373=DIRECTION('ref_axis',(1.7714901083334E-013,0.,-1.));
#374=DIRECTION('center_axis',(1.,0.,1.77479635788797E-013));
#375=DIRECTION('ref_axis',(-1.77637255838043E-013,0.,1.));
#376=DIRECTION('center_axis',(-1.,0.,-1.77479635788797E-013));
#377=DIRECTION('ref_axis',(-1.77637255838043E-013,0.,1.));
#378=DIRECTION('center_axis',(1.,0.,1.77479635788797E-013));
#379=DIRECTION('ref_axis',(-1.77637255838043E-013,0.,1.));
#380=DIRECTION('center_axis',(1.,0.,1.77479635788797E-013));
#381=DIRECTION('ref_axis',(1.77580603107796E-013,0.,-1.));
#382=DIRECTION('center_axis',(1.,0.,1.77479635788797E-013));
#383=DIRECTION('ref_axis',(-1.77637255838043E-013,0.,1.));
#384=DIRECTION('center_axis',(1.,0.,1.77479635788797E-013));
#385=DIRECTION('ref_axis',(1.76214598468505E-013,0.,-1.));
#386=DIRECTION('center_axis',(1.,0.,1.77479635788797E-013));
#387=DIRECTION('ref_axis',(-1.77637255838043E-013,0.,1.));
#388=DIRECTION('center_axis',(1.,0.,1.77479635788797E-013));
#389=DIRECTION('ref_axis',(-1.77637255838043E-013,0.,1.));
#390=DIRECTION('center_axis',(1.,0.,1.77479635788797E-013));
#391=DIRECTION('ref_axis',(-1.77637255838043E-013,0.,1.));
#392=DIRECTION('center_axis',(1.,0.,1.77479635788797E-013));
#393=DIRECTION('ref_axis',(-1.77637255838043E-013,0.,1.));
#394=DIRECTION('center_axis',(1.,0.,1.77479635788797E-013));
#395=DIRECTION('ref_axis',(-1.77637255838043E-013,0.,1.));
#396=DIRECTION('center_axis',(-1.,0.,-1.77479635788797E-013));
#397=DIRECTION('ref_axis',(-1.77637255838043E-013,0.,1.));
#398=DIRECTION('axis',(0.,0.,1.));
#399=DIRECTION('refdir',(1.,0.,0.));
#400=DIRECTION($,(0.,0.,1.));
#401=DIRECTION($,(1.,0.,0.));
#402=CARTESIAN_POINT('',(0.,0.,0.));
#403=CARTESIAN_POINT('Origin',(155.00000000001,0.,57.4999999999727));
#404=CARTESIAN_POINT('',(155.000000000011,0.,59.3999999999725));
#405=CARTESIAN_POINT('Origin',(155.,0.,-2.75093435472635E-011));
#406=CARTESIAN_POINT('',(155.00000000001,0.,55.5999999999729));
#407=CARTESIAN_POINT('Origin',(155.,0.,-2.75093435472635E-011));
#408=CARTESIAN_POINT('Origin',(148.,0.,-2.62634358705327E-011));
#409=CARTESIAN_POINT('',(144.085649675716,0.,65.2032630078597));
#410=CARTESIAN_POINT('Origin',(144.085649675705,0.,-2.55722686268363E-011));
#411=CARTESIAN_POINT('Origin',(137.559962610183,0.,-2.44140920631759E-011));
#412=CARTESIAN_POINT('',(131.034275544672,0.,56.3999999999768));
#413=CARTESIAN_POINT('Origin',(131.034275544662,0.,-2.32559154995155E-011));
#414=CARTESIAN_POINT('Origin',(130.855446379665,0.,-2.32258656751583E-011));
#415=CARTESIAN_POINT('',(131.973832186616,0.,54.7419248548665));
#416=CARTESIAN_POINT('Origin',(131.973832186606,0.,-2.34226676701307E-011));
#417=CARTESIAN_POINT('',(130.855446379675,0.,54.3999999999768));
#418=CARTESIAN_POINT('Origin',(130.855446379665,0.,-2.32241769644434E-011));
#419=CARTESIAN_POINT('Origin',(138.560974189453,0.,-2.4591751233685E-011));
#420=CARTESIAN_POINT('',(145.14811619231,0.,63.628091620005));
#421=CARTESIAN_POINT('Origin',(145.148116192299,0.,-2.57608347972393E-011));
#422=CARTESIAN_POINT('Origin',(148.,0.,-2.62634358705327E-011));
#423=CARTESIAN_POINT('',(153.100000000011,0.,59.3999999999728));
#424=CARTESIAN_POINT('Origin',(153.1,0.,-2.71721322392648E-011));
#425=CARTESIAN_POINT('Origin',(153.10000000001,0.,57.4999999999726));
#426=CARTESIAN_POINT('',(153.10000000001,0.,55.5999999999724));
#427=CARTESIAN_POINT('Origin',(153.1,0.,-2.71721322392648E-011));
#428=CARTESIAN_POINT('Origin',(153.3,0.,-2.72076281664226E-011));
#429=CARTESIAN_POINT('',(153.50000000001,0.,55.1999999999727));
#430=CARTESIAN_POINT('Origin',(153.5,0.,-2.72431240935804E-011));
#431=CARTESIAN_POINT('Origin',(154.05,0.,-2.73407378932642E-011));
#432=CARTESIAN_POINT('',(154.60000000001,0.,55.1999999999725));
#433=CARTESIAN_POINT('Origin',(154.6,0.,-2.7438351692948E-011));
#434=CARTESIAN_POINT('Origin',(154.8,0.,-2.74738476201058E-011));
#435=CARTESIAN_POINT('Origin',(-155.00000000001,0.,57.4999999999727));
#436=CARTESIAN_POINT('',(-155.000000000011,0.,59.3999999999725));
#437=CARTESIAN_POINT('Origin',(-155.,0.,-2.75093435472635E-011));
#438=CARTESIAN_POINT('',(-155.00000000001,0.,55.5999999999729));
#439=CARTESIAN_POINT('Origin',(-155.,0.,-2.75093435472635E-011));
#440=CARTESIAN_POINT('Origin',(-148.,0.,-2.62634358705327E-011));
#441=CARTESIAN_POINT('',(-144.085649675716,0.,65.2032630078597));
#442=CARTESIAN_POINT('Origin',(-144.085649675705,0.,-2.55722686268363E-011));
#443=CARTESIAN_POINT('Origin',(-137.559962610183,0.,-2.44140920631759E-011));
#444=CARTESIAN_POINT('',(-131.034275544672,0.,56.3999999999768));
#445=CARTESIAN_POINT('Origin',(-131.034275544662,0.,-2.32559154995155E-011));
#446=CARTESIAN_POINT('Origin',(-65.517137772331,0.,-1.16279577497577E-011));
#447=CARTESIAN_POINT('Origin',(-65.4277231898324,0.,-1.16120884822217E-011));
#448=CARTESIAN_POINT('',(-130.855446379675,0.,54.3999999999768));
#449=CARTESIAN_POINT('Origin',(-130.855446379665,0.,-2.32241769644434E-011));
#450=CARTESIAN_POINT('Origin',(-130.855446379665,0.,-2.32258656751583E-011));
#451=CARTESIAN_POINT('',(-131.973832186616,0.,54.7419248548665));
#452=CARTESIAN_POINT('Origin',(-131.973832186606,0.,-2.34226676701307E-011));
#453=CARTESIAN_POINT('Origin',(-138.560974189453,0.,-2.4591751233685E-011));
#454=CARTESIAN_POINT('',(-145.14811619231,0.,63.628091620005));
#455=CARTESIAN_POINT('Origin',(-145.148116192299,0.,-2.57608347972393E-011));
#456=CARTESIAN_POINT('Origin',(-148.,0.,-2.62634358705327E-011));
#457=CARTESIAN_POINT('',(-153.100000000011,0.,59.3999999999728));
#458=CARTESIAN_POINT('Origin',(-153.1,0.,-2.71721322392648E-011));
#459=CARTESIAN_POINT('Origin',(-153.10000000001,0.,57.4999999999726));
#460=CARTESIAN_POINT('',(-153.10000000001,0.,55.5999999999724));
#461=CARTESIAN_POINT('Origin',(-153.1,0.,-2.71721322392648E-011));
#462=CARTESIAN_POINT('Origin',(-153.3,0.,-2.72076281664226E-011));
#463=CARTESIAN_POINT('',(-153.50000000001,0.,55.1999999999727));
#464=CARTESIAN_POINT('Origin',(-153.5,0.,-2.72431240935804E-011));
#465=CARTESIAN_POINT('Origin',(-154.05,0.,-2.73407378932642E-011));
#466=CARTESIAN_POINT('',(-154.60000000001,0.,55.1999999999725));
#467=CARTESIAN_POINT('Origin',(-154.6,0.,-2.7438351692948E-011));
#468=CARTESIAN_POINT('Origin',(-154.8,0.,-2.74738476201058E-011));
#469=CARTESIAN_POINT('',(0.,0.,0.));
#470=CARTESIAN_POINT($,(0.,0.,0.));
#471=UNCERTAINTY_MEASURE_WITH_UNIT(LENGTH_MEASURE(0.01),#475,
'DISTANCE_ACCURACY_VALUE',
'Maximum model space distance between geometric entities at asserted c
onnectivities');
#472=UNCERTAINTY_MEASURE_WITH_UNIT(LENGTH_MEASURE(0.01),#475,
'DISTANCE_ACCURACY_VALUE',
'Maximum model space distance between geometric entities at asserted c
onnectivities');
#473=(
GEOMETRIC_REPRESENTATION_CONTEXT(3)
GLOBAL_UNCERTAINTY_ASSIGNED_CONTEXT((#471))
GLOBAL_UNIT_ASSIGNED_CONTEXT((#475,#478,#476))
REPRESENTATION_CONTEXT('','3D')
);
#474=(
GEOMETRIC_REPRESENTATION_CONTEXT(3)
GLOBAL_UNCERTAINTY_ASSIGNED_CONTEXT((#472))
GLOBAL_UNIT_ASSIGNED_CONTEXT((#475,#478,#476))
REPRESENTATION_CONTEXT('','3D')
);
#475=(
LENGTH_UNIT()
NAMED_UNIT(*)
SI_UNIT(.MILLI.,.METRE.)
);
#476=(
NAMED_UNIT(*)
SI_UNIT($,.STERADIAN.)
SOLID_ANGLE_UNIT()
);
#477=DIMENSIONAL_EXPONENTS(0.,0.,0.,0.,0.,0.,0.);
#478=(
CONVERSION_BASED_UNIT('degree',#480)
NAMED_UNIT(#477)
PLANE_ANGLE_UNIT()
);
#479=(
NAMED_UNIT(*)
PLANE_ANGLE_UNIT()
SI_UNIT($,.RADIAN.)
);
#480=PLANE_ANGLE_MEASURE_WITH_UNIT(PLANE_ANGLE_MEASURE(0.01745329252),#479);
#481=SHAPE_DEFINITION_REPRESENTATION(#483,#486);
#482=SHAPE_DEFINITION_REPRESENTATION(#484,#487);
#483=PRODUCT_DEFINITION_SHAPE('',$,#489);
#484=PRODUCT_DEFINITION_SHAPE('',$,#490);
#485=PRODUCT_DEFINITION_SHAPE($,$,#13);
#486=SHAPE_REPRESENTATION('',(#261),#473);
#487=SHAPE_REPRESENTATION('',(#306,#307),#474);
#488=PRODUCT_DEFINITION_CONTEXT('3D Mechanical Parts',#494,'design');
#489=PRODUCT_DEFINITION('432111','432111',#491,#488);
#490=PRODUCT_DEFINITION('34122','34122',#492,#488);
#491=PRODUCT_DEFINITION_FORMATION('',$,#496);
#492=PRODUCT_DEFINITION_FORMATION('',$,#497);
#493=APPLICATION_PROTOCOL_DEFINITION('international standard',
'automotive_design',2009,#494);
#494=APPLICATION_CONTEXT(
'Core Data for Automotive Mechanical Design Process');
#495=PRODUCT_CONTEXT('3D Mechanical Parts',#494,'mechanical');
#496=PRODUCT('432111','432111',$,(#495));
#497=PRODUCT('34122','34122',$,(#495));
#498=PRESENTATION_STYLE_ASSIGNMENT((#499));
#499=SURFACE_STYLE_USAGE(.BOTH.,#500);
#500=SURFACE_SIDE_STYLE($,(#501));
#501=SURFACE_STYLE_FILL_AREA(#502);
#502=FILL_AREA_STYLE($,(#503));
#503=FILL_AREA_STYLE_COLOUR($,#504);
#504=COLOUR_RGB('',1.,1.,1.);
ENDSEC;
END-ISO-10303-21;
