ISO-10303-21;
HEADER;
/* Generated by software containing ST-Developer
 * from STEP Tools, Inc. (www.steptools.com) 
 */

FILE_DESCRIPTION(
/* description */ (''),
/* implementation_level */ '2;1');

FILE_NAME(
/* name */ '43212.stp',
/* time_stamp */ '2023-09-08T11:22:05+02:00',
/* author */ ('JANAN'),
/* organization */ (''),
/* preprocessor_version */ 'ST-DEVELOPER v19.2',
/* originating_system */ 'Autodesk Inventor 2023',
/* authorisation */ '');

FILE_SCHEMA (('AUTOMOTIVE_DESIGN { 1 0 10303 214 3 1 1 }'));
ENDSEC;

DATA;
#10=MECHANICAL_DESIGN_GEOMETRIC_PRESENTATION_REPRESENTATION('',(#216,#217,
#218,#219,#220,#221,#222,#223,#224,#225,#226,#227,#228,#229,#230,#231,#232),
#471);
#11=SHAPE_REPRESENTATION_RELATIONSHIP('SRR','None',#478,#12);
#12=ADVANCED_BREP_SHAPE_REPRESENTATION('',(#13),#470);
#13=MANIFOLD_SOLID_BREP('Volumenk\X\F6rper1',#249);
#14=FACE_BOUND('',#72,.T.);
#15=FACE_BOUND('',#74,.T.);
#16=CONICAL_SURFACE('',#287,1.,0.785398163397);
#17=CONICAL_SURFACE('',#294,1.,0.785398163397);
#18=CONICAL_SURFACE('',#296,9.1,0.663225115758);
#19=CONICAL_SURFACE('',#308,8.02397849279,0.663225115758);
#20=PLANE('',#286);
#21=PLANE('',#309);
#22=PLANE('',#310);
#23=PLANE('',#311);
#24=LINE('',#413,#31);
#25=LINE('',#422,#32);
#26=LINE('',#432,#33);
#27=LINE('',#440,#34);
#28=LINE('',#443,#35);
#29=LINE('',#448,#36);
#30=LINE('',#464,#37);
#31=VECTOR('',#328,7.6);
#32=VECTOR('',#339,9.1);
#33=VECTOR('',#350,1.);
#34=VECTOR('',#361,7.9);
#35=VECTOR('',#364,1.);
#36=VECTOR('',#371,9.1);
#37=VECTOR('',#394,8.02397849279);
#38=CYLINDRICAL_SURFACE('',#276,7.6);
#39=CYLINDRICAL_SURFACE('',#282,9.1);
#40=CYLINDRICAL_SURFACE('',#291,7.9);
#41=FACE_OUTER_BOUND('',#57,.T.);
#42=FACE_OUTER_BOUND('',#58,.T.);
#43=FACE_OUTER_BOUND('',#59,.T.);
#44=FACE_OUTER_BOUND('',#60,.T.);
#45=FACE_OUTER_BOUND('',#61,.T.);
#46=FACE_OUTER_BOUND('',#62,.T.);
#47=FACE_OUTER_BOUND('',#63,.T.);
#48=FACE_OUTER_BOUND('',#64,.T.);
#49=FACE_OUTER_BOUND('',#65,.T.);
#50=FACE_OUTER_BOUND('',#66,.T.);
#51=FACE_OUTER_BOUND('',#67,.T.);
#52=FACE_OUTER_BOUND('',#68,.T.);
#53=FACE_OUTER_BOUND('',#69,.T.);
#54=FACE_OUTER_BOUND('',#70,.T.);
#55=FACE_OUTER_BOUND('',#71,.T.);
#56=FACE_OUTER_BOUND('',#73,.T.);
#57=EDGE_LOOP('',(#149,#150,#151,#152));
#58=EDGE_LOOP('',(#153,#154,#155,#156,#157));
#59=EDGE_LOOP('',(#158,#159,#160,#161,#162));
#60=EDGE_LOOP('',(#163,#164,#165,#166,#167));
#61=EDGE_LOOP('',(#168));
#62=EDGE_LOOP('',(#169,#170,#171,#172,#173));
#63=EDGE_LOOP('',(#174,#175,#176,#177,#178,#179));
#64=EDGE_LOOP('',(#180,#181,#182,#183,#184));
#65=EDGE_LOOP('',(#185,#186,#187,#188));
#66=EDGE_LOOP('',(#189,#190,#191,#192));
#67=EDGE_LOOP('',(#193,#194,#195,#196));
#68=EDGE_LOOP('',(#197,#198,#199,#200,#201));
#69=EDGE_LOOP('',(#202,#203,#204,#205));
#70=EDGE_LOOP('',(#206));
#71=EDGE_LOOP('',(#207));
#72=EDGE_LOOP('',(#208));
#73=EDGE_LOOP('',(#209));
#74=EDGE_LOOP('',(#210));
#75=CIRCLE('',#273,7.6);
#76=CIRCLE('',#274,2.);
#77=CIRCLE('',#275,8.02397849279);
#78=CIRCLE('',#277,7.6);
#79=CIRCLE('',#278,7.6);
#80=CIRCLE('',#280,6.6);
#81=CIRCLE('',#281,1.);
#82=CIRCLE('',#283,9.1);
#83=CIRCLE('',#284,9.1);
#84=CIRCLE('',#285,9.1);
#85=CIRCLE('',#288,7.9);
#86=CIRCLE('',#289,8.3);
#87=CIRCLE('',#290,7.9);
#88=CIRCLE('',#292,7.9);
#89=CIRCLE('',#293,7.9);
#90=CIRCLE('',#295,8.3);
#91=CIRCLE('',#297,11.0064301101);
#92=CIRCLE('',#299,9.82441397969);
#93=CIRCLE('',#300,1.3);
#94=CIRCLE('',#301,8.8);
#95=CIRCLE('',#303,8.8);
#96=CIRCLE('',#304,2.8);
#97=CIRCLE('',#306,2.5);
#98=CIRCLE('',#307,6.6);
#99=VERTEX_POINT('',#403);
#100=VERTEX_POINT('',#405);
#101=VERTEX_POINT('',#409);
#102=VERTEX_POINT('',#410);
#103=VERTEX_POINT('',#415);
#104=VERTEX_POINT('',#419);
#105=VERTEX_POINT('',#421);
#106=VERTEX_POINT('',#423);
#107=VERTEX_POINT('',#428);
#108=VERTEX_POINT('',#429);
#109=VERTEX_POINT('',#431);
#110=VERTEX_POINT('',#436);
#111=VERTEX_POINT('',#437);
#112=VERTEX_POINT('',#442);
#113=VERTEX_POINT('',#446);
#114=VERTEX_POINT('',#450);
#115=VERTEX_POINT('',#452);
#116=VERTEX_POINT('',#456);
#117=VERTEX_POINT('',#460);
#118=EDGE_CURVE('',#99,#99,#75,.T.);
#119=EDGE_CURVE('',#99,#100,#76,.T.);
#120=EDGE_CURVE('',#100,#100,#77,.T.);
#121=EDGE_CURVE('',#101,#102,#78,.T.);
#122=EDGE_CURVE('',#102,#101,#79,.T.);
#123=EDGE_CURVE('',#102,#99,#24,.T.);
#124=EDGE_CURVE('',#103,#103,#80,.T.);
#125=EDGE_CURVE('',#103,#101,#81,.T.);
#126=EDGE_CURVE('',#104,#104,#82,.T.);
#127=EDGE_CURVE('',#104,#105,#25,.T.);
#128=EDGE_CURVE('',#105,#106,#83,.T.);
#129=EDGE_CURVE('',#106,#105,#84,.T.);
#130=EDGE_CURVE('',#107,#108,#85,.T.);
#131=EDGE_CURVE('',#107,#109,#26,.T.);
#132=EDGE_CURVE('',#109,#109,#86,.T.);
#133=EDGE_CURVE('',#108,#107,#87,.T.);
#134=EDGE_CURVE('',#110,#111,#88,.T.);
#135=EDGE_CURVE('',#111,#110,#89,.T.);
#136=EDGE_CURVE('',#111,#108,#27,.T.);
#137=EDGE_CURVE('',#110,#112,#28,.T.);
#138=EDGE_CURVE('',#112,#112,#90,.T.);
#139=EDGE_CURVE('',#113,#113,#91,.T.);
#140=EDGE_CURVE('',#113,#104,#29,.T.);
#141=EDGE_CURVE('',#114,#114,#92,.T.);
#142=EDGE_CURVE('',#114,#115,#93,.T.);
#143=EDGE_CURVE('',#115,#115,#94,.T.);
#144=EDGE_CURVE('',#116,#116,#95,.T.);
#145=EDGE_CURVE('',#116,#113,#96,.T.);
#146=EDGE_CURVE('',#106,#117,#97,.T.);
#147=EDGE_CURVE('',#117,#117,#98,.T.);
#148=EDGE_CURVE('',#100,#114,#30,.T.);
#149=ORIENTED_EDGE('',*,*,#118,.F.);
#150=ORIENTED_EDGE('',*,*,#119,.T.);
#151=ORIENTED_EDGE('',*,*,#120,.T.);
#152=ORIENTED_EDGE('',*,*,#119,.F.);
#153=ORIENTED_EDGE('',*,*,#121,.F.);
#154=ORIENTED_EDGE('',*,*,#122,.F.);
#155=ORIENTED_EDGE('',*,*,#123,.T.);
#156=ORIENTED_EDGE('',*,*,#118,.T.);
#157=ORIENTED_EDGE('',*,*,#123,.F.);
#158=ORIENTED_EDGE('',*,*,#124,.F.);
#159=ORIENTED_EDGE('',*,*,#125,.T.);
#160=ORIENTED_EDGE('',*,*,#121,.T.);
#161=ORIENTED_EDGE('',*,*,#122,.T.);
#162=ORIENTED_EDGE('',*,*,#125,.F.);
#163=ORIENTED_EDGE('',*,*,#126,.F.);
#164=ORIENTED_EDGE('',*,*,#127,.T.);
#165=ORIENTED_EDGE('',*,*,#128,.T.);
#166=ORIENTED_EDGE('',*,*,#129,.T.);
#167=ORIENTED_EDGE('',*,*,#127,.F.);
#168=ORIENTED_EDGE('',*,*,#124,.T.);
#169=ORIENTED_EDGE('',*,*,#130,.F.);
#170=ORIENTED_EDGE('',*,*,#131,.T.);
#171=ORIENTED_EDGE('',*,*,#132,.T.);
#172=ORIENTED_EDGE('',*,*,#131,.F.);
#173=ORIENTED_EDGE('',*,*,#133,.F.);
#174=ORIENTED_EDGE('',*,*,#134,.F.);
#175=ORIENTED_EDGE('',*,*,#135,.F.);
#176=ORIENTED_EDGE('',*,*,#136,.T.);
#177=ORIENTED_EDGE('',*,*,#133,.T.);
#178=ORIENTED_EDGE('',*,*,#130,.T.);
#179=ORIENTED_EDGE('',*,*,#136,.F.);
#180=ORIENTED_EDGE('',*,*,#134,.T.);
#181=ORIENTED_EDGE('',*,*,#135,.T.);
#182=ORIENTED_EDGE('',*,*,#137,.T.);
#183=ORIENTED_EDGE('',*,*,#138,.F.);
#184=ORIENTED_EDGE('',*,*,#137,.F.);
#185=ORIENTED_EDGE('',*,*,#139,.F.);
#186=ORIENTED_EDGE('',*,*,#140,.T.);
#187=ORIENTED_EDGE('',*,*,#126,.T.);
#188=ORIENTED_EDGE('',*,*,#140,.F.);
#189=ORIENTED_EDGE('',*,*,#141,.F.);
#190=ORIENTED_EDGE('',*,*,#142,.T.);
#191=ORIENTED_EDGE('',*,*,#143,.T.);
#192=ORIENTED_EDGE('',*,*,#142,.F.);
#193=ORIENTED_EDGE('',*,*,#144,.F.);
#194=ORIENTED_EDGE('',*,*,#145,.T.);
#195=ORIENTED_EDGE('',*,*,#139,.T.);
#196=ORIENTED_EDGE('',*,*,#145,.F.);
#197=ORIENTED_EDGE('',*,*,#128,.F.);
#198=ORIENTED_EDGE('',*,*,#129,.F.);
#199=ORIENTED_EDGE('',*,*,#146,.T.);
#200=ORIENTED_EDGE('',*,*,#147,.T.);
#201=ORIENTED_EDGE('',*,*,#146,.F.);
#202=ORIENTED_EDGE('',*,*,#120,.F.);
#203=ORIENTED_EDGE('',*,*,#148,.T.);
#204=ORIENTED_EDGE('',*,*,#141,.T.);
#205=ORIENTED_EDGE('',*,*,#148,.F.);
#206=ORIENTED_EDGE('',*,*,#147,.F.);
#207=ORIENTED_EDGE('',*,*,#144,.T.);
#208=ORIENTED_EDGE('',*,*,#132,.F.);
#209=ORIENTED_EDGE('',*,*,#143,.F.);
#210=ORIENTED_EDGE('',*,*,#138,.T.);
#211=TOROIDAL_SURFACE('',#272,9.6,2.);
#212=TOROIDAL_SURFACE('',#279,6.6,1.);
#213=TOROIDAL_SURFACE('',#298,8.8,1.3);
#214=TOROIDAL_SURFACE('',#302,8.8,2.8);
#215=TOROIDAL_SURFACE('',#305,6.6,2.5);
#216=STYLED_ITEM('',(#487),#233);
#217=STYLED_ITEM('',(#487),#234);
#218=STYLED_ITEM('',(#487),#235);
#219=STYLED_ITEM('',(#487),#236);
#220=STYLED_ITEM('',(#487),#237);
#221=STYLED_ITEM('',(#487),#238);
#222=STYLED_ITEM('',(#487),#239);
#223=STYLED_ITEM('',(#487),#240);
#224=STYLED_ITEM('',(#487),#241);
#225=STYLED_ITEM('',(#487),#242);
#226=STYLED_ITEM('',(#487),#243);
#227=STYLED_ITEM('',(#487),#244);
#228=STYLED_ITEM('',(#487),#245);
#229=STYLED_ITEM('',(#487),#246);
#230=STYLED_ITEM('',(#487),#247);
#231=STYLED_ITEM('',(#487),#248);
#232=STYLED_ITEM('',(#487),#13);
#233=ADVANCED_FACE('',(#41),#211,.T.);
#234=ADVANCED_FACE('',(#42),#38,.F.);
#235=ADVANCED_FACE('',(#43),#212,.F.);
#236=ADVANCED_FACE('',(#44),#39,.T.);
#237=ADVANCED_FACE('',(#45),#20,.T.);
#238=ADVANCED_FACE('',(#46),#16,.F.);
#239=ADVANCED_FACE('',(#47),#40,.F.);
#240=ADVANCED_FACE('',(#48),#17,.F.);
#241=ADVANCED_FACE('',(#49),#18,.T.);
#242=ADVANCED_FACE('',(#50),#213,.F.);
#243=ADVANCED_FACE('',(#51),#214,.T.);
#244=ADVANCED_FACE('',(#52),#215,.T.);
#245=ADVANCED_FACE('',(#53),#19,.F.);
#246=ADVANCED_FACE('',(#54),#21,.F.);
#247=ADVANCED_FACE('',(#55,#14),#22,.T.);
#248=ADVANCED_FACE('',(#56,#15),#23,.F.);
#249=CLOSED_SHELL('',(#233,#234,#235,#236,#237,#238,#239,#240,#241,#242,
#243,#244,#245,#246,#247,#248));
#250=DERIVED_UNIT_ELEMENT(#253,1.);
#251=DERIVED_UNIT_ELEMENT(#473,-3.);
#252=DIMENSIONAL_EXPONENTS(0.,1.,0.,0.,0.,0.,0.);
#253=(
CONVERSION_BASED_UNIT('gram',#255)
MASS_UNIT()
NAMED_UNIT(#252)
);
#254=(
MASS_UNIT()
NAMED_UNIT(*)
SI_UNIT(.KILO.,.GRAM.)
);
#255=MASS_MEASURE_WITH_UNIT(MASS_MEASURE(0.001),#254);
#256=DERIVED_UNIT((#250,#251));
#257=MEASURE_REPRESENTATION_ITEM('density measure',
POSITIVE_RATIO_MEASURE(8.),#256);
#258=PROPERTY_DEFINITION_REPRESENTATION(#263,#260);
#259=PROPERTY_DEFINITION_REPRESENTATION(#264,#261);
#260=REPRESENTATION('material name',(#262),#470);
#261=REPRESENTATION('density',(#257),#470);
#262=DESCRIPTIVE_REPRESENTATION_ITEM('Edelstahl','Edelstahl');
#263=PROPERTY_DEFINITION('material property','material name',#480);
#264=PROPERTY_DEFINITION('material property','density of part',#480);
#265=DATE_TIME_ROLE('creation_date');
#266=APPLIED_DATE_AND_TIME_ASSIGNMENT(#267,#265,(#480));
#267=DATE_AND_TIME(#268,#269);
#268=CALENDAR_DATE(2023,8,9);
#269=LOCAL_TIME(0,0,0.,#270);
#270=COORDINATED_UNIVERSAL_TIME_OFFSET(0,0,.BEHIND.);
#271=AXIS2_PLACEMENT_3D('',#401,#312,#313);
#272=AXIS2_PLACEMENT_3D('',#402,#314,#315);
#273=AXIS2_PLACEMENT_3D('',#404,#316,#317);
#274=AXIS2_PLACEMENT_3D('',#406,#318,#319);
#275=AXIS2_PLACEMENT_3D('',#407,#320,#321);
#276=AXIS2_PLACEMENT_3D('',#408,#322,#323);
#277=AXIS2_PLACEMENT_3D('',#411,#324,#325);
#278=AXIS2_PLACEMENT_3D('',#412,#326,#327);
#279=AXIS2_PLACEMENT_3D('',#414,#329,#330);
#280=AXIS2_PLACEMENT_3D('',#416,#331,#332);
#281=AXIS2_PLACEMENT_3D('',#417,#333,#334);
#282=AXIS2_PLACEMENT_3D('',#418,#335,#336);
#283=AXIS2_PLACEMENT_3D('',#420,#337,#338);
#284=AXIS2_PLACEMENT_3D('',#424,#340,#341);
#285=AXIS2_PLACEMENT_3D('',#425,#342,#343);
#286=AXIS2_PLACEMENT_3D('',#426,#344,#345);
#287=AXIS2_PLACEMENT_3D('',#427,#346,#347);
#288=AXIS2_PLACEMENT_3D('',#430,#348,#349);
#289=AXIS2_PLACEMENT_3D('',#433,#351,#352);
#290=AXIS2_PLACEMENT_3D('',#434,#353,#354);
#291=AXIS2_PLACEMENT_3D('',#435,#355,#356);
#292=AXIS2_PLACEMENT_3D('',#438,#357,#358);
#293=AXIS2_PLACEMENT_3D('',#439,#359,#360);
#294=AXIS2_PLACEMENT_3D('',#441,#362,#363);
#295=AXIS2_PLACEMENT_3D('',#444,#365,#366);
#296=AXIS2_PLACEMENT_3D('',#445,#367,#368);
#297=AXIS2_PLACEMENT_3D('',#447,#369,#370);
#298=AXIS2_PLACEMENT_3D('',#449,#372,#373);
#299=AXIS2_PLACEMENT_3D('',#451,#374,#375);
#300=AXIS2_PLACEMENT_3D('',#453,#376,#377);
#301=AXIS2_PLACEMENT_3D('',#454,#378,#379);
#302=AXIS2_PLACEMENT_3D('',#455,#380,#381);
#303=AXIS2_PLACEMENT_3D('',#457,#382,#383);
#304=AXIS2_PLACEMENT_3D('',#458,#384,#385);
#305=AXIS2_PLACEMENT_3D('',#459,#386,#387);
#306=AXIS2_PLACEMENT_3D('',#461,#388,#389);
#307=AXIS2_PLACEMENT_3D('',#462,#390,#391);
#308=AXIS2_PLACEMENT_3D('',#463,#392,#393);
#309=AXIS2_PLACEMENT_3D('',#465,#395,#396);
#310=AXIS2_PLACEMENT_3D('',#466,#397,#398);
#311=AXIS2_PLACEMENT_3D('',#467,#399,#400);
#312=DIRECTION('axis',(0.,0.,1.));
#313=DIRECTION('refdir',(1.,0.,0.));
#314=DIRECTION('center_axis',(-1.,0.,0.));
#315=DIRECTION('ref_axis',(0.,0.877582561890373,-0.479425538604203));
#316=DIRECTION('center_axis',(-1.,0.,0.));
#317=DIRECTION('ref_axis',(0.,1.,0.));
#318=DIRECTION('center_axis',(0.,0.479425538604204,0.877582561890372));
#319=DIRECTION('ref_axis',(0.,-0.877582561890372,0.479425538604204));
#320=DIRECTION('center_axis',(-1.,0.,0.));
#321=DIRECTION('ref_axis',(0.,1.,0.));
#322=DIRECTION('center_axis',(-1.,0.,0.));
#323=DIRECTION('ref_axis',(0.,0.877582561890372,-0.479425538604204));
#324=DIRECTION('center_axis',(-1.,0.,0.));
#325=DIRECTION('ref_axis',(0.,1.,0.));
#326=DIRECTION('center_axis',(-1.,0.,0.));
#327=DIRECTION('ref_axis',(0.,1.,0.));
#328=DIRECTION('',(-1.,0.,0.));
#329=DIRECTION('center_axis',(-1.,0.,0.));
#330=DIRECTION('ref_axis',(0.,0.479425538604204,0.877582561890373));
#331=DIRECTION('center_axis',(-1.,0.,0.));
#332=DIRECTION('ref_axis',(0.,1.,0.));
#333=DIRECTION('center_axis',(0.,0.877582561890372,-0.479425538604204));
#334=DIRECTION('ref_axis',(0.,-0.479425538604204,-0.877582561890372));
#335=DIRECTION('center_axis',(-1.,0.,0.));
#336=DIRECTION('ref_axis',(0.,0.877582561890372,-0.479425538604204));
#337=DIRECTION('center_axis',(-1.,0.,0.));
#338=DIRECTION('ref_axis',(0.,1.,0.));
#339=DIRECTION('',(1.,0.,0.));
#340=DIRECTION('center_axis',(-1.,0.,0.));
#341=DIRECTION('ref_axis',(0.,1.,0.));
#342=DIRECTION('center_axis',(-1.,0.,0.));
#343=DIRECTION('ref_axis',(0.,1.,0.));
#344=DIRECTION('center_axis',(-1.,0.,0.));
#345=DIRECTION('ref_axis',(0.,1.,0.));
#346=DIRECTION('center_axis',(-1.,-2.22044604925E-15,2.22044604925E-15));
#347=DIRECTION('ref_axis',(2.97259471214127E-15,-0.897284113777323,0.441453530015159));
#348=DIRECTION('center_axis',(-1.,3.05784486786E-15,5.59734748552E-15));
#349=DIRECTION('ref_axis',(3.05784486786E-15,1.,0.));
#350=DIRECTION('',(-0.707106781186867,0.63447568150262,-0.312154784652316));
#351=DIRECTION('center_axis',(-1.,4.46815962653E-16,9.08183620272E-16));
#352=DIRECTION('ref_axis',(4.46815962653E-16,1.,0.));
#353=DIRECTION('center_axis',(-1.,3.05784486786E-15,5.59734748552E-15));
#354=DIRECTION('ref_axis',(3.05784486786E-15,1.,0.));
#355=DIRECTION('center_axis',(-1.,0.,0.));
#356=DIRECTION('ref_axis',(0.,0.877582561890372,-0.479425538604204));
#357=DIRECTION('center_axis',(-1.,0.,0.));
#358=DIRECTION('ref_axis',(0.,1.,0.));
#359=DIRECTION('center_axis',(-1.,0.,0.));
#360=DIRECTION('ref_axis',(0.,1.,0.));
#361=DIRECTION('',(-1.,0.,0.));
#362=DIRECTION('center_axis',(1.,-3.88578058619E-15,0.));
#363=DIRECTION('ref_axis',(-3.71699670380612E-15,-0.956563712582297,0.291523350301091));
#364=DIRECTION('',(0.707106781186867,0.676392687803616,-0.20613813787203));
#365=DIRECTION('center_axis',(-1.,-5.10366964392E-16,-9.34220461888E-16));
#366=DIRECTION('ref_axis',(-5.10366964392E-16,1.,0.));
#367=DIRECTION('center_axis',(-1.,0.,0.));
#368=DIRECTION('ref_axis',(0.,0.877582561890372,-0.479425538604204));
#369=DIRECTION('center_axis',(-1.,0.,0.));
#370=DIRECTION('ref_axis',(0.,1.,0.));
#371=DIRECTION('',(0.788010753606627,0.540293774773605,-0.295163834405921));
#372=DIRECTION('center_axis',(-1.,0.,0.));
#373=DIRECTION('ref_axis',(0.,0.877582561890372,-0.479425538604204));
#374=DIRECTION('center_axis',(-1.,0.,0.));
#375=DIRECTION('ref_axis',(0.,1.,0.));
#376=DIRECTION('center_axis',(0.,-0.479425538604204,-0.877582561890372));
#377=DIRECTION('ref_axis',(0.,-0.877582561890372,0.479425538604204));
#378=DIRECTION('center_axis',(-1.,0.,0.));
#379=DIRECTION('ref_axis',(0.,1.,0.));
#380=DIRECTION('center_axis',(-1.,0.,0.));
#381=DIRECTION('ref_axis',(0.,0.877582561890373,-0.479425538604204));
#382=DIRECTION('center_axis',(-1.,0.,0.));
#383=DIRECTION('ref_axis',(0.,1.,0.));
#384=DIRECTION('center_axis',(0.,0.479425538604204,0.877582561890372));
#385=DIRECTION('ref_axis',(0.,-0.877582561890372,0.479425538604204));
#386=DIRECTION('center_axis',(-1.,0.,0.));
#387=DIRECTION('ref_axis',(0.,0.479425538604204,0.877582561890372));
#388=DIRECTION('center_axis',(0.,-0.877582561890372,0.479425538604204));
#389=DIRECTION('ref_axis',(0.,-0.479425538604204,-0.877582561890372));
#390=DIRECTION('center_axis',(-1.,0.,0.));
#391=DIRECTION('ref_axis',(0.,1.,0.));
#392=DIRECTION('center_axis',(-1.,0.,0.));
#393=DIRECTION('ref_axis',(0.,0.877582561890372,-0.479425538604204));
#394=DIRECTION('',(-0.788010753606626,-0.540293774773605,0.295163834405921));
#395=DIRECTION('center_axis',(-1.,0.,0.));
#396=DIRECTION('ref_axis',(0.,1.,0.));
#397=DIRECTION('center_axis',(-1.,0.,0.));
#398=DIRECTION('ref_axis',(0.,1.,0.));
#399=DIRECTION('center_axis',(-1.,0.,0.));
#400=DIRECTION('ref_axis',(0.,1.,0.));
#401=CARTESIAN_POINT('',(0.,0.,0.));
#402=CARTESIAN_POINT('Origin',(-15.8638647957,0.,0.));
#403=CARTESIAN_POINT('',(-15.8638647957,-6.66962747036683,3.64363409339195));
#404=CARTESIAN_POINT('Origin',(-15.8638647957,0.,0.));
#405=CARTESIAN_POINT('',(-17.0951877463,-7.0417036022559,3.84690021065439));
#406=CARTESIAN_POINT('Origin',(-15.8638647957,-8.42479259414757,4.60248517060035));
#407=CARTESIAN_POINT('Origin',(-17.0951877463,0.,0.));
#408=CARTESIAN_POINT('Origin',(-2.25,0.,0.));
#409=CARTESIAN_POINT('',(-2.5,-3.64363409339,-6.66962747037));
#410=CARTESIAN_POINT('',(-2.5,-6.66962747036683,3.64363409339195));
#411=CARTESIAN_POINT('Origin',(-2.5,0.,0.));
#412=CARTESIAN_POINT('Origin',(-2.5,0.,0.));
#413=CARTESIAN_POINT('',(-2.25,-6.66962747036683,3.64363409339195));
#414=CARTESIAN_POINT('Origin',(-2.5,0.,0.));
#415=CARTESIAN_POINT('',(-1.5,-3.16420855479,-5.79204490848));
#416=CARTESIAN_POINT('Origin',(-1.5,0.,0.));
#417=CARTESIAN_POINT('Origin',(-2.5,-3.16420855478774,-5.79204490847646));
#418=CARTESIAN_POINT('Origin',(-2.25,0.,0.));
#419=CARTESIAN_POINT('',(-16.0360286023,-7.9860013132,4.3627724013));
#420=CARTESIAN_POINT('Origin',(-16.0360286023,0.,0.));
#421=CARTESIAN_POINT('',(-2.5,-7.9860013132,4.3627724013));
#422=CARTESIAN_POINT('',(-2.25,-7.98600131320239,4.36277240129825));
#423=CARTESIAN_POINT('',(-2.5,-4.36277240129825,-7.98600131320239));
#424=CARTESIAN_POINT('Origin',(-2.5,0.,0.));
#425=CARTESIAN_POINT('Origin',(-2.5,0.,0.));
#426=CARTESIAN_POINT('Origin',(-1.5,9.1,0.));
#427=CARTESIAN_POINT('Origin',(-15.7000000000009,1.4876988529948E-14,-1.6209256159548E-14));
#428=CARTESIAN_POINT('',(-22.6000000000035,7.08854449883765,-3.48748288711818));
#429=CARTESIAN_POINT('',(-22.6000000000001,-6.93290223893394,3.78746175497321));
#430=CARTESIAN_POINT('Origin',(-22.6,-8.881784197E-16,-1.7763568394E-15));
#431=CARTESIAN_POINT('',(-23.0000000000038,7.44745814434845,-3.66406429912418));
#432=CARTESIAN_POINT('',(-15.7000000000009,0.897284113777338,-0.441453530015175));
#433=CARTESIAN_POINT('Origin',(-23.,-1.33226762955E-15,5.67979851759E-29));
#434=CARTESIAN_POINT('Origin',(-22.6,-8.881784197E-16,-1.7763568394E-15));
#435=CARTESIAN_POINT('Origin',(-2.25,0.,0.));
#436=CARTESIAN_POINT('',(-21.8999999999964,7.55685332939675,-2.30303446737758));
#437=CARTESIAN_POINT('',(-21.9,-6.93290223893394,3.78746175497321));
#438=CARTESIAN_POINT('Origin',(-21.9,0.,0.));
#439=CARTESIAN_POINT('Origin',(-21.9,0.,0.));
#440=CARTESIAN_POINT('',(-2.25,-6.93290223893394,3.78746175497321));
#441=CARTESIAN_POINT('Origin',(-28.7999999999991,2.83661982792065E-14,1.7763568394E-15));
#442=CARTESIAN_POINT('',(-21.4999999999962,7.93947881442953,-2.41964380749797));
#443=CARTESIAN_POINT('',(-28.7999999999991,0.956563712582326,-0.291523350301089));
#444=CARTESIAN_POINT('Origin',(-21.5,-8.881784197E-16,0.));
#445=CARTESIAN_POINT('Origin',(-16.0360286023,0.,0.));
#446=CARTESIAN_POINT('',(-18.4761478690934,-9.65905113329628,5.27676368364825));
#447=CARTESIAN_POINT('Origin',(-18.4761478691,0.,0.));
#448=CARTESIAN_POINT('',(-16.0360286023,-7.98600131320239,4.36277240129825));
#449=CARTESIAN_POINT('Origin',(-20.2,0.,0.));
#450=CARTESIAN_POINT('',(-19.3996400821,-8.62173438937,4.71007496368));
#451=CARTESIAN_POINT('Origin',(-19.3996400821,0.,0.));
#452=CARTESIAN_POINT('',(-21.5,-7.72272654464,4.21894473972));
#453=CARTESIAN_POINT('Origin',(-20.2,-7.72272654463528,4.21894473971699));
#454=CARTESIAN_POINT('Origin',(-21.5,0.,0.));
#455=CARTESIAN_POINT('Origin',(-20.2,0.,0.));
#456=CARTESIAN_POINT('',(-23.,-7.72272654464,4.21894473972));
#457=CARTESIAN_POINT('Origin',(-23.,0.,0.));
#458=CARTESIAN_POINT('Origin',(-20.2,-7.72272654463528,4.21894473971699));
#459=CARTESIAN_POINT('Origin',(-2.5,0.,0.));
#460=CARTESIAN_POINT('',(5.55111512312578E-16,-3.16420855478774,-5.79204490847646));
#461=CARTESIAN_POINT('Origin',(-2.5,-3.16420855478774,-5.79204490847646));
#462=CARTESIAN_POINT('Origin',(4.4408920985E-16,0.,0.));
#463=CARTESIAN_POINT('Origin',(-17.0951877463,0.,0.));
#464=CARTESIAN_POINT('',(-17.0951877463,-7.0417036022559,3.84690021065439));
#465=CARTESIAN_POINT('Origin',(5.55111512313E-16,0.,6.6));
#466=CARTESIAN_POINT('Origin',(-23.,7.9,0.));
#467=CARTESIAN_POINT('Origin',(-21.5,7.9,0.));
#468=UNCERTAINTY_MEASURE_WITH_UNIT(LENGTH_MEASURE(0.01),#472,
'DISTANCE_ACCURACY_VALUE',
'Maximum model space distance between geometric entities at asserted c
onnectivities');
#469=UNCERTAINTY_MEASURE_WITH_UNIT(LENGTH_MEASURE(0.01),#472,
'DISTANCE_ACCURACY_VALUE',
'Maximum model space distance between geometric entities at asserted c
onnectivities');
#470=(
GEOMETRIC_REPRESENTATION_CONTEXT(3)
GLOBAL_UNCERTAINTY_ASSIGNED_CONTEXT((#468))
GLOBAL_UNIT_ASSIGNED_CONTEXT((#472,#474,#475))
REPRESENTATION_CONTEXT('','3D')
);
#471=(
GEOMETRIC_REPRESENTATION_CONTEXT(3)
GLOBAL_UNCERTAINTY_ASSIGNED_CONTEXT((#469))
GLOBAL_UNIT_ASSIGNED_CONTEXT((#472,#474,#475))
REPRESENTATION_CONTEXT('','3D')
);
#472=(
LENGTH_UNIT()
NAMED_UNIT(*)
SI_UNIT(.MILLI.,.METRE.)
);
#473=(
LENGTH_UNIT()
NAMED_UNIT(*)
SI_UNIT(.CENTI.,.METRE.)
);
#474=(
NAMED_UNIT(*)
PLANE_ANGLE_UNIT()
SI_UNIT($,.RADIAN.)
);
#475=(
NAMED_UNIT(*)
SI_UNIT($,.STERADIAN.)
SOLID_ANGLE_UNIT()
);
#476=SHAPE_DEFINITION_REPRESENTATION(#477,#478);
#477=PRODUCT_DEFINITION_SHAPE('',$,#480);
#478=SHAPE_REPRESENTATION('',(#271),#470);
#479=PRODUCT_DEFINITION_CONTEXT('part definition',#484,'design');
#480=PRODUCT_DEFINITION('tmp3963.tmp','tmp3963.tmp',#481,#479);
#481=PRODUCT_DEFINITION_FORMATION('',$,#486);
#482=PRODUCT_RELATED_PRODUCT_CATEGORY('tmp3963.tmp','tmp3963.tmp',(#486));
#483=APPLICATION_PROTOCOL_DEFINITION('international standard',
'automotive_design',2009,#484);
#484=APPLICATION_CONTEXT(
'Core Data for Automotive Mechanical Design Process');
#485=PRODUCT_CONTEXT('part definition',#484,'mechanical');
#486=PRODUCT('tmp3963.tmp','tmp3963.tmp',$,(#485));
#487=PRESENTATION_STYLE_ASSIGNMENT((#488));
#488=SURFACE_STYLE_USAGE(.BOTH.,#491);
#489=SURFACE_STYLE_RENDERING_WITH_PROPERTIES($,#495,(#490));
#490=SURFACE_STYLE_TRANSPARENT(0.);
#491=SURFACE_SIDE_STYLE('',(#492,#489));
#492=SURFACE_STYLE_FILL_AREA(#493);
#493=FILL_AREA_STYLE('',(#494));
#494=FILL_AREA_STYLE_COLOUR('',#495);
#495=COLOUR_RGB('',0.745098039215686,0.737254901960784,0.729411764705882);
ENDSEC;
END-ISO-10303-21;
