ISO-10303-21;
HEADER;
/* Generated by software containing ST-Developer
 * from STEP Tools, Inc. (www.steptools.com) 
 */

FILE_DESCRIPTION(
/* description */ (''),
/* implementation_level */ '2;1');

FILE_NAME(
/* name */ 'Z:\\Geberit\\Export\\NewStep\\30804.stp',
/* time_stamp */ '2014-04-01T20:05:24+02:00',
/* author */ ('bruh'),
/* organization */ (''),
/* preprocessor_version */ 'ST-DEVELOPER v15.2',
/* originating_system */ 'Autodesk Inventor 2014',
/* authorisation */ '');

FILE_SCHEMA (('AUTOMOTIVE_DESIGN { 1 0 10303 214 3 1 1 }'));
ENDSEC;

DATA;
#10=SHAPE_REPRESENTATION_RELATIONSHIP('SRR','None',#281,#11);
#11=ADVANCED_BREP_SHAPE_REPRESENTATION($,(#158),#272);
#12=PLANE($,#182);
#13=PLANE($,#183);
#14=TOROIDAL_SURFACE($,#163,30.,10.);
#15=TOROIDAL_SURFACE($,#167,30.,10.);
#16=TOROIDAL_SURFACE($,#174,30.,11.);
#17=TOROIDAL_SURFACE($,#178,30.,11.);
#18=FACE_BOUND($,#43,.T.);
#19=FACE_BOUND($,#45,.T.);
#20=FACE_BOUND($,#47,.T.);
#21=FACE_BOUND($,#49,.T.);
#22=FACE_BOUND($,#51,.T.);
#23=FACE_BOUND($,#53,.T.);
#24=FACE_BOUND($,#55,.T.);
#25=FACE_BOUND($,#57,.T.);
#26=FACE_BOUND($,#59,.T.);
#27=FACE_BOUND($,#61,.T.);
#28=FACE_BOUND($,#62,.T.);
#29=FACE_BOUND($,#63,.T.);
#30=FACE_BOUND($,#64,.T.);
#31=FACE_BOUND($,#65,.T.);
#32=FACE_OUTER_BOUND($,#42,.T.);
#33=FACE_OUTER_BOUND($,#44,.T.);
#34=FACE_OUTER_BOUND($,#46,.T.);
#35=FACE_OUTER_BOUND($,#48,.T.);
#36=FACE_OUTER_BOUND($,#50,.T.);
#37=FACE_OUTER_BOUND($,#52,.T.);
#38=FACE_OUTER_BOUND($,#54,.T.);
#39=FACE_OUTER_BOUND($,#56,.T.);
#40=FACE_OUTER_BOUND($,#58,.T.);
#41=FACE_OUTER_BOUND($,#60,.T.);
#42=EDGE_LOOP($,(#102));
#43=EDGE_LOOP($,(#103));
#44=EDGE_LOOP($,(#104));
#45=EDGE_LOOP($,(#105));
#46=EDGE_LOOP($,(#106));
#47=EDGE_LOOP($,(#107));
#48=EDGE_LOOP($,(#108));
#49=EDGE_LOOP($,(#109));
#50=EDGE_LOOP($,(#110));
#51=EDGE_LOOP($,(#111));
#52=EDGE_LOOP($,(#112));
#53=EDGE_LOOP($,(#113));
#54=EDGE_LOOP($,(#114));
#55=EDGE_LOOP($,(#115));
#56=EDGE_LOOP($,(#116));
#57=EDGE_LOOP($,(#117));
#58=EDGE_LOOP($,(#118));
#59=EDGE_LOOP($,(#119));
#60=EDGE_LOOP($,(#120));
#61=EDGE_LOOP($,(#121));
#62=EDGE_LOOP($,(#122));
#63=EDGE_LOOP($,(#123));
#64=EDGE_LOOP($,(#124));
#65=EDGE_LOOP($,(#125));
#66=CIRCLE($,#161,10.);
#67=CIRCLE($,#162,10.);
#68=CIRCLE($,#164,10.);
#69=CIRCLE($,#166,10.);
#70=CIRCLE($,#168,10.);
#71=CIRCLE($,#170,10.);
#72=CIRCLE($,#172,11.);
#73=CIRCLE($,#173,11.);
#74=CIRCLE($,#175,11.);
#75=CIRCLE($,#177,11.);
#76=CIRCLE($,#179,11.);
#77=CIRCLE($,#181,11.);
#78=VERTEX_POINT($,#236);
#79=VERTEX_POINT($,#238);
#80=VERTEX_POINT($,#241);
#81=VERTEX_POINT($,#244);
#82=VERTEX_POINT($,#247);
#83=VERTEX_POINT($,#250);
#84=VERTEX_POINT($,#253);
#85=VERTEX_POINT($,#255);
#86=VERTEX_POINT($,#258);
#87=VERTEX_POINT($,#261);
#88=VERTEX_POINT($,#264);
#89=VERTEX_POINT($,#267);
#90=EDGE_CURVE($,#78,#78,#66,.T.);
#91=EDGE_CURVE($,#79,#79,#67,.T.);
#92=EDGE_CURVE($,#80,#80,#68,.T.);
#93=EDGE_CURVE($,#81,#81,#69,.T.);
#94=EDGE_CURVE($,#82,#82,#70,.T.);
#95=EDGE_CURVE($,#83,#83,#71,.T.);
#96=EDGE_CURVE($,#84,#84,#72,.T.);
#97=EDGE_CURVE($,#85,#85,#73,.T.);
#98=EDGE_CURVE($,#86,#86,#74,.T.);
#99=EDGE_CURVE($,#87,#87,#75,.T.);
#100=EDGE_CURVE($,#88,#88,#76,.T.);
#101=EDGE_CURVE($,#89,#89,#77,.T.);
#102=ORIENTED_EDGE($,*,*,#90,.F.);
#103=ORIENTED_EDGE($,*,*,#91,.T.);
#104=ORIENTED_EDGE($,*,*,#91,.F.);
#105=ORIENTED_EDGE($,*,*,#92,.T.);
#106=ORIENTED_EDGE($,*,*,#92,.F.);
#107=ORIENTED_EDGE($,*,*,#93,.T.);
#108=ORIENTED_EDGE($,*,*,#93,.F.);
#109=ORIENTED_EDGE($,*,*,#94,.T.);
#110=ORIENTED_EDGE($,*,*,#94,.F.);
#111=ORIENTED_EDGE($,*,*,#95,.F.);
#112=ORIENTED_EDGE($,*,*,#96,.T.);
#113=ORIENTED_EDGE($,*,*,#97,.F.);
#114=ORIENTED_EDGE($,*,*,#97,.T.);
#115=ORIENTED_EDGE($,*,*,#98,.F.);
#116=ORIENTED_EDGE($,*,*,#98,.T.);
#117=ORIENTED_EDGE($,*,*,#99,.F.);
#118=ORIENTED_EDGE($,*,*,#99,.T.);
#119=ORIENTED_EDGE($,*,*,#100,.F.);
#120=ORIENTED_EDGE($,*,*,#100,.T.);
#121=ORIENTED_EDGE($,*,*,#101,.F.);
#122=ORIENTED_EDGE($,*,*,#90,.T.);
#123=ORIENTED_EDGE($,*,*,#96,.F.);
#124=ORIENTED_EDGE($,*,*,#95,.T.);
#125=ORIENTED_EDGE($,*,*,#101,.T.);
#126=CYLINDRICAL_SURFACE($,#160,10.);
#127=CYLINDRICAL_SURFACE($,#165,10.);
#128=CYLINDRICAL_SURFACE($,#169,10.);
#129=CYLINDRICAL_SURFACE($,#171,11.);
#130=CYLINDRICAL_SURFACE($,#176,11.);
#131=CYLINDRICAL_SURFACE($,#180,11.);
#132=STYLED_ITEM($,(#289),#145);
#133=STYLED_ITEM($,(#289),#146);
#134=STYLED_ITEM($,(#289),#147);
#135=STYLED_ITEM($,(#289),#148);
#136=STYLED_ITEM($,(#289),#149);
#137=STYLED_ITEM($,(#289),#150);
#138=STYLED_ITEM($,(#289),#151);
#139=STYLED_ITEM($,(#289),#152);
#140=STYLED_ITEM($,(#289),#153);
#141=STYLED_ITEM($,(#289),#154);
#142=STYLED_ITEM($,(#289),#155);
#143=STYLED_ITEM($,(#289),#156);
#144=STYLED_ITEM($,(#289),#158);
#145=ADVANCED_FACE($,(#32,#18),#126,.F.);
#146=ADVANCED_FACE($,(#33,#19),#14,.F.);
#147=ADVANCED_FACE($,(#34,#20),#127,.F.);
#148=ADVANCED_FACE($,(#35,#21),#15,.F.);
#149=ADVANCED_FACE($,(#36,#22),#128,.F.);
#150=ADVANCED_FACE($,(#37,#23),#129,.T.);
#151=ADVANCED_FACE($,(#38,#24),#16,.T.);
#152=ADVANCED_FACE($,(#39,#25),#130,.T.);
#153=ADVANCED_FACE($,(#40,#26),#17,.T.);
#154=ADVANCED_FACE($,(#41,#27),#131,.T.);
#155=ADVANCED_FACE($,(#28,#29),#12,.F.);
#156=ADVANCED_FACE($,(#30,#31),#13,.T.);
#157=CLOSED_SHELL($,(#145,#146,#147,#148,#149,#150,#151,#152,#153,#154,
#155,#156));
#158=MANIFOLD_SOLID_BREP('Volumenk\X\F6rper1',#157);
#159=AXIS2_PLACEMENT_3D('placement',#234,#184,#185);
#160=AXIS2_PLACEMENT_3D($,#235,#186,#187);
#161=AXIS2_PLACEMENT_3D($,#237,#188,#189);
#162=AXIS2_PLACEMENT_3D($,#239,#190,#191);
#163=AXIS2_PLACEMENT_3D($,#240,#192,#193);
#164=AXIS2_PLACEMENT_3D($,#242,#194,#195);
#165=AXIS2_PLACEMENT_3D($,#243,#196,#197);
#166=AXIS2_PLACEMENT_3D($,#245,#198,#199);
#167=AXIS2_PLACEMENT_3D($,#246,#200,#201);
#168=AXIS2_PLACEMENT_3D($,#248,#202,#203);
#169=AXIS2_PLACEMENT_3D($,#249,#204,#205);
#170=AXIS2_PLACEMENT_3D($,#251,#206,#207);
#171=AXIS2_PLACEMENT_3D($,#252,#208,#209);
#172=AXIS2_PLACEMENT_3D($,#254,#210,#211);
#173=AXIS2_PLACEMENT_3D($,#256,#212,#213);
#174=AXIS2_PLACEMENT_3D($,#257,#214,#215);
#175=AXIS2_PLACEMENT_3D($,#259,#216,#217);
#176=AXIS2_PLACEMENT_3D($,#260,#218,#219);
#177=AXIS2_PLACEMENT_3D($,#262,#220,#221);
#178=AXIS2_PLACEMENT_3D($,#263,#222,#223);
#179=AXIS2_PLACEMENT_3D($,#265,#224,#225);
#180=AXIS2_PLACEMENT_3D($,#266,#226,#227);
#181=AXIS2_PLACEMENT_3D($,#268,#228,#229);
#182=AXIS2_PLACEMENT_3D($,#269,#230,#231);
#183=AXIS2_PLACEMENT_3D($,#270,#232,#233);
#184=DIRECTION('axis',(0.,0.,1.));
#185=DIRECTION('refdir',(1.,0.,0.));
#186=DIRECTION('center_axis',(0.866025403784438,0.,-0.500000000000001));
#187=DIRECTION('ref_axis',(0.,-1.,0.));
#188=DIRECTION('center_axis',(-0.866025403784438,0.,0.500000000000001));
#189=DIRECTION('ref_axis',(0.,-1.,0.));
#190=DIRECTION('center_axis',(-0.866025403784439,0.,0.5));
#191=DIRECTION('ref_axis',(0.,-1.,0.));
#192=DIRECTION('center_axis',(0.,1.,0.));
#193=DIRECTION('ref_axis',(0.,0.,1.));
#194=DIRECTION('center_axis',(-0.866025403784438,0.,-0.5));
#195=DIRECTION('ref_axis',(0.,-1.,0.));
#196=DIRECTION('center_axis',(0.866025403784439,0.,0.5));
#197=DIRECTION('ref_axis',(0.,-1.,0.));
#198=DIRECTION('center_axis',(-0.866025403784438,0.,-0.5));
#199=DIRECTION('ref_axis',(0.,-1.,0.));
#200=DIRECTION('center_axis',(0.,-1.,0.));
#201=DIRECTION('ref_axis',(0.,0.,-1.));
#202=DIRECTION('center_axis',(-1.,0.,0.));
#203=DIRECTION('ref_axis',(0.,-1.,0.));
#204=DIRECTION('center_axis',(1.,0.,-1.44127105013867E-015));
#205=DIRECTION('ref_axis',(0.,-1.,0.));
#206=DIRECTION('center_axis',(1.,0.,0.));
#207=DIRECTION('ref_axis',(0.,-1.,0.));
#208=DIRECTION('center_axis',(0.866025403784438,0.,-0.500000000000001));
#209=DIRECTION('ref_axis',(0.,-1.,0.));
#210=DIRECTION('center_axis',(-0.866025403784439,0.,0.5));
#211=DIRECTION('ref_axis',(0.,-1.,0.));
#212=DIRECTION('center_axis',(-0.866025403784439,0.,0.5));
#213=DIRECTION('ref_axis',(0.,-1.,0.));
#214=DIRECTION('center_axis',(0.,1.,0.));
#215=DIRECTION('ref_axis',(0.,0.,1.));
#216=DIRECTION('center_axis',(-0.866025403784438,0.,-0.5));
#217=DIRECTION('ref_axis',(0.,-1.,0.));
#218=DIRECTION('center_axis',(0.866025403784439,0.,0.5));
#219=DIRECTION('ref_axis',(0.,-1.,0.));
#220=DIRECTION('center_axis',(-0.866025403784438,0.,-0.5));
#221=DIRECTION('ref_axis',(0.,-1.,0.));
#222=DIRECTION('center_axis',(0.,-1.,0.));
#223=DIRECTION('ref_axis',(0.,0.,-1.));
#224=DIRECTION('center_axis',(-1.,0.,0.));
#225=DIRECTION('ref_axis',(0.,-1.,0.));
#226=DIRECTION('center_axis',(1.,0.,-1.44127105013867E-015));
#227=DIRECTION('ref_axis',(0.,-1.,0.));
#228=DIRECTION('center_axis',(-1.,0.,0.));
#229=DIRECTION('ref_axis',(0.,-1.,0.));
#230=DIRECTION('center_axis',(-0.866025403784438,0.,0.500000000000001));
#231=DIRECTION('ref_axis',(0.5,0.,0.866025403784439));
#232=DIRECTION('center_axis',(-1.,0.,0.));
#233=DIRECTION('ref_axis',(0.,0.,1.));
#234=CARTESIAN_POINT('',(0.,0.,0.));
#235=CARTESIAN_POINT('Origin',(128.3,0.,29.0407185402382));
#236=CARTESIAN_POINT('',(158.6,10.,11.5470053837925));
#237=CARTESIAN_POINT('Origin',(158.6,0.,11.5470053837925));
#238=CARTESIAN_POINT('',(128.3,10.,29.0407185402381));
#239=CARTESIAN_POINT('Origin',(128.3,0.,29.0407185402382));
#240=CARTESIAN_POINT('Origin',(113.3,0.,3.05995642670503));
#241=CARTESIAN_POINT('',(98.3,10.,29.0407185402382));
#242=CARTESIAN_POINT('Origin',(98.3,0.,29.0407185402382));
#243=CARTESIAN_POINT('Origin',(54.9615242270662,0.,4.0192378864668));
#244=CARTESIAN_POINT('',(54.9615242270662,10.,4.01923788646679));
#245=CARTESIAN_POINT('Origin',(54.9615242270662,0.,4.0192378864668));
#246=CARTESIAN_POINT('Origin',(39.9615242270662,0.,29.9999999999999));
#247=CARTESIAN_POINT('',(39.9615242270662,10.,-5.63707411887383E-014));
#248=CARTESIAN_POINT('Origin',(39.9615242270662,0.,-5.75953879878857E-014));
#249=CARTESIAN_POINT('Origin',(0.,0.,0.));
#250=CARTESIAN_POINT('',(0.,10.,1.22464679914735E-015));
#251=CARTESIAN_POINT('Origin',(0.,0.,0.));
#252=CARTESIAN_POINT('Origin',(128.3,0.,29.0407185402382));
#253=CARTESIAN_POINT('',(158.6,11.,11.5470053837925));
#254=CARTESIAN_POINT('Origin',(158.6,0.,11.5470053837925));
#255=CARTESIAN_POINT('',(128.3,11.,29.0407185402381));
#256=CARTESIAN_POINT('Origin',(128.3,0.,29.0407185402382));
#257=CARTESIAN_POINT('Origin',(113.3,0.,3.05995642670503));
#258=CARTESIAN_POINT('',(98.3,11.,29.0407185402382));
#259=CARTESIAN_POINT('Origin',(98.3,0.,29.0407185402382));
#260=CARTESIAN_POINT('Origin',(54.9615242270662,0.,4.0192378864668));
#261=CARTESIAN_POINT('',(54.9615242270662,11.,4.01923788646679));
#262=CARTESIAN_POINT('Origin',(54.9615242270662,0.,4.0192378864668));
#263=CARTESIAN_POINT('Origin',(39.9615242270662,0.,29.9999999999999));
#264=CARTESIAN_POINT('',(39.9615242270662,11.,-5.62482765088236E-014));
#265=CARTESIAN_POINT('Origin',(39.9615242270662,0.,-5.75953879878857E-014));
#266=CARTESIAN_POINT('Origin',(0.,0.,0.));
#267=CARTESIAN_POINT('',(0.,11.,1.34711147906209E-015));
#268=CARTESIAN_POINT('Origin',(0.,0.,0.));
#269=CARTESIAN_POINT('Origin',(158.6,0.,11.5470053837925));
#270=CARTESIAN_POINT('Origin',(0.,0.,0.));
#271=UNCERTAINTY_MEASURE_WITH_UNIT(LENGTH_MEASURE(0.01),#273,
'DISTANCE_ACCURACY_VALUE',
'Maximum model space distance between geometric entities at asserted c
onnectivities');
#272=(
GEOMETRIC_REPRESENTATION_CONTEXT(3)
GLOBAL_UNCERTAINTY_ASSIGNED_CONTEXT((#271))
GLOBAL_UNIT_ASSIGNED_CONTEXT((#273,#276,#274))
REPRESENTATION_CONTEXT('','3D')
);
#273=(
LENGTH_UNIT()
NAMED_UNIT(*)
SI_UNIT(.MILLI.,.METRE.)
);
#274=(
NAMED_UNIT(*)
SI_UNIT($,.STERADIAN.)
SOLID_ANGLE_UNIT()
);
#275=DIMENSIONAL_EXPONENTS(0.,0.,0.,0.,0.,0.,0.);
#276=(
CONVERSION_BASED_UNIT('degree',#278)
NAMED_UNIT(#275)
PLANE_ANGLE_UNIT()
);
#277=(
NAMED_UNIT(*)
PLANE_ANGLE_UNIT()
SI_UNIT($,.RADIAN.)
);
#278=PLANE_ANGLE_MEASURE_WITH_UNIT(PLANE_ANGLE_MEASURE(0.01745329252),#277);
#279=SHAPE_DEFINITION_REPRESENTATION(#280,#281);
#280=PRODUCT_DEFINITION_SHAPE('',$,#283);
#281=SHAPE_REPRESENTATION('',(#159),#272);
#282=PRODUCT_DEFINITION_CONTEXT('3D Mechanical Parts',#286,'design');
#283=PRODUCT_DEFINITION('30804','30804',#284,#282);
#284=PRODUCT_DEFINITION_FORMATION('',$,#288);
#285=APPLICATION_PROTOCOL_DEFINITION('international standard',
'automotive_design',2009,#286);
#286=APPLICATION_CONTEXT(
'Core Data for Automotive Mechanical Design Process');
#287=PRODUCT_CONTEXT('3D Mechanical Parts',#286,'mechanical');
#288=PRODUCT('30804','30804',$,(#287));
#289=PRESENTATION_STYLE_ASSIGNMENT((#290));
#290=SURFACE_STYLE_USAGE(.BOTH.,#291);
#291=SURFACE_SIDE_STYLE($,(#292));
#292=SURFACE_STYLE_FILL_AREA(#293);
#293=FILL_AREA_STYLE($,(#294));
#294=FILL_AREA_STYLE_COLOUR($,#295);
#295=COLOUR_RGB('',1.,1.,1.);
ENDSEC;
END-ISO-10303-21;
