ISO-10303-21;
HEADER;
/****************************************************************
 * Generated by software with PDE/Lib inside                    *
 * PDElib Version v51a, created Thu 12/14/2006                  *
 * International Technegroup Inc. (www.iti-oh.com)              *
 ****************************************************************/
FILE_DESCRIPTION((''),'2;1');
FILE_NAME('T:\\Arbeitspl\S\dtze\\Aushilfe\\KPeters\\3D\\Steps 08_10\\47201\\47201200X.stp','2010-08-17T10:23:08',('thilbrands'),(''),'Autodesk Inventor 2008','Autodesk Inventor 2008','');
FILE_SCHEMA(('AUTOMOTIVE_DESIGN { 1 0 10303 214 1 1 1 1 }'));
ENDSEC;
DATA;
#5=APPLICATION_CONTEXT('automotive design');
#6=APPLICATION_PROTOCOL_DEFINITION('International Standard','automotive_design',2001,#5);
#7=PRODUCT_CONTEXT('',#5,'mechanical');
#8=PRODUCT('472011001','472011001',$,(#7));
#9=PRODUCT_RELATED_PRODUCT_CATEGORY('part',$,(#8));
#10=PRODUCT_DEFINITION_FORMATION('',$,#8);
#11=PRODUCT_DEFINITION_CONTEXT('part definition',#5,'design');
#12=PRODUCT_DEFINITION('',$,#10,#11);
#18=(NAMED_UNIT(*)PLANE_ANGLE_UNIT()SI_UNIT($,.RADIAN.));
#19=DIMENSIONAL_EXPONENTS(0.0,0.0,0.0,0.0,0.0,0.0,0.0);
#20=PLANE_ANGLE_MEASURE_WITH_UNIT(PLANE_ANGLE_MEASURE(0.017453292500000),#18);
#24=(CONVERSION_BASED_UNIT('DEGREE',#20)NAMED_UNIT(#19)PLANE_ANGLE_UNIT());
#28=(NAMED_UNIT(*)SI_UNIT($,.STERADIAN.)SOLID_ANGLE_UNIT());
#32=(LENGTH_UNIT()NAMED_UNIT(*)SI_UNIT(.MILLI.,.METRE.));
#34=UNCERTAINTY_MEASURE_WITH_UNIT(LENGTH_MEASURE(0.010000000000000),#32,'DISTANCE_ACCURACY_VALUE','');
#36=(GEOMETRIC_REPRESENTATION_CONTEXT(3)GLOBAL_UNCERTAINTY_ASSIGNED_CONTEXT((#34))GLOBAL_UNIT_ASSIGNED_CONTEXT((#24,#28,#32))REPRESENTATION_CONTEXT('None','None'));
#37=AXIS2_PLACEMENT_3D('',#38,#39,#40);
#38=CARTESIAN_POINT('',(0.0,0.0,0.0));
#39=DIRECTION('',(0.0,0.0,1.0));
#40=DIRECTION('',(1.0,0.0,0.0));
#41=SHAPE_REPRESENTATION('',(#37),#36);
#42=PRODUCT_DEFINITION_SHAPE('','',#12);
#43=SHAPE_DEFINITION_REPRESENTATION(#42,#41);
#49=(NAMED_UNIT(*)PLANE_ANGLE_UNIT()SI_UNIT($,.RADIAN.));
#50=DIMENSIONAL_EXPONENTS(0.0,0.0,0.0,0.0,0.0,0.0,0.0);
#51=PLANE_ANGLE_MEASURE_WITH_UNIT(PLANE_ANGLE_MEASURE(0.017453292500000),#49);
#55=(CONVERSION_BASED_UNIT('DEGREE',#51)NAMED_UNIT(#50)PLANE_ANGLE_UNIT());
#59=(NAMED_UNIT(*)SI_UNIT($,.STERADIAN.)SOLID_ANGLE_UNIT());
#63=(LENGTH_UNIT()NAMED_UNIT(*)SI_UNIT(.MILLI.,.METRE.));
#65=UNCERTAINTY_MEASURE_WITH_UNIT(LENGTH_MEASURE(0.000001000000000),#63,'DISTANCE_ACCURACY_VALUE','');
#67=(GEOMETRIC_REPRESENTATION_CONTEXT(3)GLOBAL_UNCERTAINTY_ASSIGNED_CONTEXT((#65))GLOBAL_UNIT_ASSIGNED_CONTEXT((#55,#59,#63))REPRESENTATION_CONTEXT('','3D'));
#68=CARTESIAN_POINT('',(0.0,0.0,-135.0));
#69=DIRECTION('',(0.0,0.0,1.0));
#70=DIRECTION('',(1.0,0.0,0.0));
#71=AXIS2_PLACEMENT_3D('',#68,#69,#70);
#72=CYLINDRICAL_SURFACE('',#71,23.900000000000002);
#73=CARTESIAN_POINT('',(-1.463405E-015,23.900000000000002,-4.748738E-015));
#74=VERTEX_POINT('',#73);
#75=CARTESIAN_POINT('',(-1.463405E-015,-23.900000000000002,-4.748738E-015));
#76=VERTEX_POINT('',#75);
#77=CARTESIAN_POINT('',(-1.463405E-015,23.900000000000002,-4.748738E-015));
#78=CARTESIAN_POINT('',(-1.478878E-015,23.900000000000002,-0.117597041538411));
#79=CARTESIAN_POINT('',(0.000153656569837,23.900000001481800,-0.235193997581473));
#80=CARTESIAN_POINT('',(0.000460967593411,23.899999995554584,-0.352790637578209));
#81=CARTESIAN_POINT('',(0.015165842114998,23.899999711936619,-5.979804860990915));
#82=CARTESIAN_POINT('',(0.381178619441291,23.905069966358631,-11.355826699379064));
#83=CARTESIAN_POINT('',(1.003259103137526,23.878933627194741,-16.458431208566953));
#84=CARTESIAN_POINT('',(1.710197246966490,23.849232044233606,-22.257079221096493));
#85=CARTESIAN_POINT('',(2.747555547999945,23.774184731451744,-27.702780321600894));
#86=CARTESIAN_POINT('',(3.975565261680516,23.567029529622928,-32.762823758854196));
#87=CARTESIAN_POINT('',(4.476811760266847,23.482473342140157,-34.828221961622575));
#88=CARTESIAN_POINT('',(5.009844047500311,23.376007477567679,-36.829342269722446));
#89=CARTESIAN_POINT('',(5.565336505894445,23.242999582157175,-38.763911781339885));
#90=CARTESIAN_POINT('',(6.164143559973067,23.099620379043944,-40.849329598731785));
#91=CARTESIAN_POINT('',(6.791289263006882,22.924948681196771,-42.865575159387888));
#92=CARTESIAN_POINT('',(7.439240881271703,22.712720997503048,-44.817351973798736));
#93=CARTESIAN_POINT('',(8.741737156226799,22.286106170621878,-48.740765325433976));
#94=CARTESIAN_POINT('',(10.125857560887637,21.707600920124797,-52.396708847042085));
#95=CARTESIAN_POINT('',(11.522934528982610,20.938767390674656,-55.778063096752525));
#96=CARTESIAN_POINT('',(12.274343549279488,20.525255134493616,-57.596703115932115));
#97=CARTESIAN_POINT('',(13.029626072892569,20.056915128238682,-59.335904377427397));
#98=CARTESIAN_POINT('',(13.778937725387816,19.528207167066935,-60.994370116058349));
#99=CARTESIAN_POINT('',(14.132654416855869,19.278627662790274,-61.777257999929049));
#100=CARTESIAN_POINT('',(14.485495622928992,19.015236275400966,-62.543103844199422));
#101=CARTESIAN_POINT('',(14.835068888501088,18.738482624626442,-63.288771515137626));
#102=CARTESIAN_POINT('',(16.311237881538858,17.569814427661314,-66.437557773572635));
#103=CARTESIAN_POINT('',(17.677787096477044,16.201166394425336,-69.123690220140020));
#104=CARTESIAN_POINT('',(18.869713762014207,14.667784513676621,-71.378026841205397));
#105=CARTESIAN_POINT('',(19.782460230331889,13.493560514245445,-73.104339246800691));
#106=CARTESIAN_POINT('',(20.595052794086421,12.219553521801917,-74.579838195506767));
#107=CARTESIAN_POINT('',(21.279967746425065,10.879934407481919,-75.799678703374255));
#108=CARTESIAN_POINT('',(21.922075514242543,9.624041487806920,-76.943279179500024));
#109=CARTESIAN_POINT('',(22.453420909981691,8.309821696034931,-77.864778620217606));
#110=CARTESIAN_POINT('',(22.865010066164643,6.957105337292927,-78.571958852153188));
#111=CARTESIAN_POINT('',(23.039331693948860,6.384185195826845,-78.871473082098134));
#112=CARTESIAN_POINT('',(23.194409920902885,5.797731561695627,-79.136231721099222));
#113=CARTESIAN_POINT('',(23.329102984651971,5.192586439482970,-79.365343858991963));
#114=CARTESIAN_POINT('',(23.490930140379447,4.465534049372828,-79.640610933522936));
#115=CARTESIAN_POINT('',(23.622425970252721,3.714465887772527,-79.862889702965177));
#116=CARTESIAN_POINT('',(23.718264512062216,2.941756029287619,-80.024567591813963));
#117=CARTESIAN_POINT('',(23.799550293049030,2.286379568656487,-80.161695236029345));
#118=CARTESIAN_POINT('',(23.854850943390673,1.614297698582508,-80.254668019038746));
#119=CARTESIAN_POINT('',(23.881345865312682,0.944097273226137,-80.299211600329102));
#120=CARTESIAN_POINT('',(23.915444475969739,0.081558276746315,-80.356538594541874));
#121=CARTESIAN_POINT('',(23.902811849178818,-0.784042450114572,-80.335355087221643));
#122=CARTESIAN_POINT('',(23.843148053807958,-1.647510511102726,-80.234967280657315));
#123=CARTESIAN_POINT('',(23.798200417403322,-2.298002961525488,-80.159340267644396));
#124=CARTESIAN_POINT('',(23.727125778611082,-2.938187476162750,-80.039673400374568));
#125=CARTESIAN_POINT('',(23.632901561116384,-3.563139599087132,-79.880432031264220));
#126=CARTESIAN_POINT('',(23.505233264080058,-4.409913129124478,-79.664669301123268));
#127=CARTESIAN_POINT('',(23.334897562459581,-5.230780482417600,-79.375980031386590));
#128=CARTESIAN_POINT('',(23.128882899961969,-6.022024227769828,-79.024036741928924));
#129=CARTESIAN_POINT('',(22.973370013654694,-6.619305009246876,-78.758367706062742));
#130=CARTESIAN_POINT('',(22.795851613274170,-7.206776050441087,-78.453808071967217));
#131=CARTESIAN_POINT('',(22.595373563515004,-7.788394797723562,-78.107303513493861));
#132=CARTESIAN_POINT('',(22.253798467383803,-8.779358545392579,-77.516928018457790));
#133=CARTESIAN_POINT('',(21.846828507558289,-9.748045794978475,-76.807140823782561));
#134=CARTESIAN_POINT('',(21.378275356084959,-10.685473447602147,-75.974563810152546));
#135=CARTESIAN_POINT('',(21.140889024838035,-11.160408917710528,-75.552749546125767));
#136=CARTESIAN_POINT('',(20.887721441870909,-11.627320713061529,-75.099403468525580));
#137=CARTESIAN_POINT('',(20.619443290146314,-12.085055167620876,-74.614004639474402));
#138=CARTESIAN_POINT('',(20.395550180788398,-12.467060148767269,-74.208912191892139));
#139=CARTESIAN_POINT('',(20.164067374785201,-12.837502892612454,-73.786754046235359));
#140=CARTESIAN_POINT('',(19.929171237987070,-13.192351335792605,-73.354456130875306));
#141=CARTESIAN_POINT('',(18.952058719234838,-14.668437153198113,-71.556198778981042));
#142=CARTESIAN_POINT('',(17.902401986119155,-15.900828220657166,-69.555079506804390));
#143=CARTESIAN_POINT('',(16.870485194268188,-16.929168004068533,-67.490969784500891));
#144=CARTESIAN_POINT('',(16.629537195001173,-17.169280787711873,-67.009009308826748));
#145=CARTESIAN_POINT('',(16.389008547354820,-17.398869974632468,-66.522800637947412));
#146=CARTESIAN_POINT('',(16.144141637149051,-17.623186170487738,-66.022104192688715));
#147=CARTESIAN_POINT('',(14.370132568832970,-19.248309651986375,-62.394664153460276));
#148=CARTESIAN_POINT('',(12.436681696819338,-20.521651954991309,-58.152629880172789));
#149=CARTESIAN_POINT('',(10.510611078276611,-21.464786389834138,-53.271615248035111));
#150=CARTESIAN_POINT('',(10.113685333294153,-21.659148078634438,-52.265732934853169));
#151=CARTESIAN_POINT('',(9.717249577099738,-21.839499778704919,-51.232347770688079));
#152=CARTESIAN_POINT('',(9.328058090434446,-22.004484367089372,-50.185413064129520));
#153=CARTESIAN_POINT('',(6.689843300831851,-23.122866438757587,-43.088550154159414));
#154=CARTESIAN_POINT('',(4.320292681877421,-23.567919939436397,-35.215538437922909));
#155=CARTESIAN_POINT('',(2.627154507110589,-23.755169104760515,-26.633282128191802));
#156=CARTESIAN_POINT('',(2.399326106615795,-23.780365322331864,-25.478455099410372));
#157=CARTESIAN_POINT('',(2.183954565638368,-23.800852892423247,-24.311065055676760));
#158=CARTESIAN_POINT('',(1.984008217560601,-23.817508505144950,-23.144809758158779));
#159=CARTESIAN_POINT('',(1.147290550265073,-23.887207429670742,-18.264368472825776));
#160=CARTESIAN_POINT('',(0.568188025284799,-23.895231041243960,-13.342903025612646));
#161=CARTESIAN_POINT('',(0.260141108639412,-23.898584196633823,-8.380817342756455));
#162=CARTESIAN_POINT('',(0.094739259533203,-23.900384630502352,-5.716488946596373));
#163=CARTESIAN_POINT('',(0.007484529234108,-23.899999860088734,-3.040449173115354));
#164=CARTESIAN_POINT('',(0.000460967501309,-23.899999995554580,-0.352790637578443));
#165=CARTESIAN_POINT('',(0.000153656569812,-23.900000001481800,-0.235193997575048));
#166=CARTESIAN_POINT('',(-1.478878E-015,-23.900000000000002,-0.117597041544836));
#167=CARTESIAN_POINT('',(-1.463405E-015,-23.900000000000002,-4.748738E-015));
#168=B_SPLINE_CURVE_WITH_KNOTS('',3,(#77,#78,#79,#80,#81,#82,#83,#84,#85,#86,#87,#88,#89,#90,#91,#92,#93,#94,#95,#96,#97,#98,#99,#100,#101,#102,#103,#104,#105,#106,#107,#108,#109,#110,#111,#112,#113,#114,#115,#116,#117,#118,#119,#120,#121,#122,#123,#124,#125,#126,#127,#128,#129,#130,#131,#132,#133,#134,#135,#136,#137,#138,#139,#140,#141,#142,#143,#144,#145,#146,#147,#148,#149,#150,#151,#152,#153,#154,#155,#156,#157,#158,#159,#160,#161,#162,#163,#164,#165,#166,#167),.UNSPECIFIED.,.F.,.U.,(4,3,3,3,3,3,3,3,3,3,3,3,3,3,3,3,3,3,3,3,3,3,3,3,3,3,3,3,3,3,4),(-21.840894264841722,-21.817125420834806,-20.679783203363339,-19.387296753153130,-18.859732271845889,-18.291030882449238,-17.147841452296159,-16.532984240172485,-16.242737507623460,-15.017091072052331,-14.078522880049061,-13.198615200045994,-12.825945180018095,-12.378200302239073,-11.998443980972640,-11.509702667390446,-11.141510085569770,-10.642630698164950,-10.266045009971867,-9.624417196848626,-9.299344849977466,-9.028053811033770,-7.899547084654548,-7.636045763590950,-5.727034322693212,-5.333624142888032,-2.666812071444016,-2.307966268005103,-0.806300313819150,0.0,0.035279112463449),.UNSPECIFIED.);
#169=EDGE_CURVE('',#74,#76,#168,.T.);
#170=ORIENTED_EDGE('',*,*,#169,.F.);
#171=CARTESIAN_POINT('',(0.0,0.0,-1.424594E-014));
#172=DIRECTION('',(0.0,0.0,-1.0));
#173=DIRECTION('',(-1.0,0.0,0.0));
#174=AXIS2_PLACEMENT_3D('',#171,#172,#173);
#175=CIRCLE('',#174,23.900000000000002);
#176=EDGE_CURVE('',#76,#74,#175,.T.);
#177=ORIENTED_EDGE('',*,*,#176,.F.);
#178=EDGE_LOOP('',(#170,#177));
#179=FACE_OUTER_BOUND('',#178,.T.);
#180=CARTESIAN_POINT('',(-23.900000000000002,2.926906E-015,-135.0));
#181=VERTEX_POINT('',#180);
#182=CARTESIAN_POINT('',(0.0,0.0,-135.0));
#183=DIRECTION('',(0.0,0.0,1.0));
#184=DIRECTION('',(1.0,0.0,0.0));
#185=AXIS2_PLACEMENT_3D('',#182,#183,#184);
#186=CIRCLE('',#185,23.900000000000002);
#187=EDGE_CURVE('',#181,#181,#186,.T.);
#188=ORIENTED_EDGE('',*,*,#187,.F.);
#189=EDGE_LOOP('',(#188));
#190=FACE_BOUND('',#189,.T.);
#191=ADVANCED_FACE('',(#179,#190),#72,.F.);
#192=CARTESIAN_POINT('',(67.500000000000000,0.0,-8.881784E-015));
#193=DIRECTION('',(0.0,1.0,0.0));
#194=DIRECTION('',(0.0,0.0,1.0));
#195=AXIS2_PLACEMENT_3D('',#192,#193,#194);
#196=TOROIDAL_SURFACE('',#195,67.500000000000000,23.900000000000002);
#197=CARTESIAN_POINT('',(67.499999999999986,2.926906E-015,-43.600000000000009));
#198=VERTEX_POINT('',#197);
#199=CARTESIAN_POINT('',(67.500000000000000,0.0,-67.500000000000014));
#200=DIRECTION('',(-1.0,0.0,0.0));
#201=DIRECTION('',(0.0,0.0,-1.0));
#202=AXIS2_PLACEMENT_3D('',#199,#200,#201);
#203=CIRCLE('',#202,23.900000000000002);
#204=EDGE_CURVE('',#198,#198,#203,.T.);
#205=ORIENTED_EDGE('',*,*,#204,.F.);
#206=EDGE_LOOP('',(#205));
#207=FACE_OUTER_BOUND('',#206,.T.);
#208=ORIENTED_EDGE('',*,*,#169,.T.);
#209=CARTESIAN_POINT('',(0.0,0.0,-1.424594E-014));
#210=DIRECTION('',(0.0,0.0,-1.0));
#211=DIRECTION('',(-1.0,0.0,0.0));
#212=AXIS2_PLACEMENT_3D('',#209,#210,#211);
#213=CIRCLE('',#212,23.900000000000002);
#214=EDGE_CURVE('',#74,#76,#213,.T.);
#215=ORIENTED_EDGE('',*,*,#214,.F.);
#216=EDGE_LOOP('',(#208,#215));
#217=FACE_BOUND('',#216,.T.);
#218=ADVANCED_FACE('',(#207,#217),#196,.F.);
#219=CARTESIAN_POINT('',(0.0,0.0,-135.0));
#220=DIRECTION('',(0.0,0.0,1.0));
#221=DIRECTION('',(-1.0,0.0,0.0));
#222=AXIS2_PLACEMENT_3D('',#219,#220,#221);
#223=CYLINDRICAL_SURFACE('',#222,25.399999999999995);
#224=CARTESIAN_POINT('',(25.399999999999995,3.110603E-015,-135.0));
#225=VERTEX_POINT('',#224);
#226=CARTESIAN_POINT('',(0.0,0.0,-135.0));
#227=DIRECTION('',(0.0,0.0,-1.0));
#228=DIRECTION('',(-1.0,0.0,0.0));
#229=AXIS2_PLACEMENT_3D('',#226,#227,#228);
#230=CIRCLE('',#229,25.399999999999995);
#231=EDGE_CURVE('',#225,#225,#230,.T.);
#232=ORIENTED_EDGE('',*,*,#231,.F.);
#233=EDGE_LOOP('',(#232));
#234=FACE_OUTER_BOUND('',#233,.T.);
#235=CARTESIAN_POINT('',(-1.555250E-015,-25.399999999999999,-4.748738E-015));
#236=VERTEX_POINT('',#235);
#237=CARTESIAN_POINT('',(-1.555250E-015,25.399999999999999,-4.748738E-015));
#238=VERTEX_POINT('',#237);
#239=CARTESIAN_POINT('',(-1.555250E-015,-25.399999999999999,-4.748738E-015));
#240=CARTESIAN_POINT('',(-1.570989E-015,-25.399999999999999,-0.119611156192362));
#241=CARTESIAN_POINT('',(0.000158964011383,-25.400000001492288,-0.239221818299384));
#242=CARTESIAN_POINT('',(0.000476891702766,-25.399999995523110,-0.358832551963448));
#243=CARTESIAN_POINT('',(0.013086457013017,-25.399999758775191,-5.102802325032642));
#244=CARTESIAN_POINT('',(0.275662388111112,-25.403459223759270,-9.811854162167901));
#245=CARTESIAN_POINT('',(0.777154787784807,-25.388108051523311,-14.485571880389125));
#246=CARTESIAN_POINT('',(1.059885236152181,-25.379453396314055,-17.120511725688921));
#247=CARTESIAN_POINT('',(1.418555708049925,-25.364066546460389,-19.744237626544155));
#248=CARTESIAN_POINT('',(1.851190142679493,-25.332451422151113,-22.356684425993716));
#249=CARTESIAN_POINT('',(2.052520512575451,-25.317739036446209,-23.572410309942452));
#250=CARTESIAN_POINT('',(2.270264694693914,-25.299418418851644,-24.787731043171110));
#251=CARTESIAN_POINT('',(2.502951626273119,-25.276376978446429,-25.996094689274933));
#252=CARTESIAN_POINT('',(4.074304734771622,-25.120776323268696,-34.156269214828384));
#253=CARTESIAN_POINT('',(6.266600438534756,-24.755862013749795,-41.705671061124235));
#254=CARTESIAN_POINT('',(8.744057781021615,-23.847462202971521,-48.589048157746802));
#255=CARTESIAN_POINT('',(9.524977908119444,-23.561125205953225,-50.758759670018904));
#256=CARTESIAN_POINT('',(10.334366210056764,-23.220894327666617,-52.862290906184469));
#257=CARTESIAN_POINT('',(11.162067978309922,-22.815964552207475,-54.897708095545127));
#258=CARTESIAN_POINT('',(11.573416688169013,-22.614723782757164,-55.909263545807782));
#259=CARTESIAN_POINT('',(11.986324431397346,-22.398878764727264,-56.896637075886218));
#260=CARTESIAN_POINT('',(12.397321245896386,-22.169042061533595,-57.855654316514546));
#261=CARTESIAN_POINT('',(13.467782797228029,-21.570420989120827,-60.353462199546676));
#262=CARTESIAN_POINT('',(14.528885273548513,-20.874766684289952,-62.668709533794150));
#263=CARTESIAN_POINT('',(15.554893636006444,-20.079972210452034,-64.806028127958456));
#264=CARTESIAN_POINT('',(16.086810278418856,-19.667924489009472,-65.914084720840378));
#265=CARTESIAN_POINT('',(16.609374375799366,-19.229286271313796,-66.974300805316801));
#266=CARTESIAN_POINT('',(17.119459763343635,-18.763904108986964,-67.987161553507917));
#267=CARTESIAN_POINT('',(17.397050276602588,-18.510641270143822,-68.538364434076257));
#268=CARTESIAN_POINT('',(17.670950193689769,-18.249457928696351,-69.075540507927712));
#269=CARTESIAN_POINT('',(17.940686920773423,-17.980315703868747,-69.598746171240947));
#270=CARTESIAN_POINT('',(18.198723009605228,-17.722848328977424,-70.099256222191954));
#271=CARTESIAN_POINT('',(18.456558373147057,-17.454546874975826,-70.593987522633668));
#272=CARTESIAN_POINT('',(18.714682450074204,-17.173254228389109,-71.084205429335967));
#273=CARTESIAN_POINT('',(19.547309437649115,-16.265892730993514,-72.665494024231407));
#274=CARTESIAN_POINT('',(20.377863020540513,-15.228966978727914,-74.188892123227618));
#275=CARTESIAN_POINT('',(21.163517685388808,-14.045124391767947,-75.591995443002958));
#276=CARTESIAN_POINT('',(21.439953250651001,-13.628584900118740,-76.085682652762287));
#277=CARTESIAN_POINT('',(21.710778798516642,-13.193836591967729,-76.564502090182202));
#278=CARTESIAN_POINT('',(21.973920970023268,-12.739968493021145,-77.025701307461560));
#279=CARTESIAN_POINT('',(22.180401905257920,-12.383829798082601,-77.387592543549246));
#280=CARTESIAN_POINT('',(22.378419952224395,-12.022310046560253,-77.732105544928388));
#281=CARTESIAN_POINT('',(22.567422168918029,-11.656391236134231,-78.058977610572569));
#282=CARTESIAN_POINT('',(23.270816636237704,-10.294580400026019,-79.275471292591988));
#283=CARTESIAN_POINT('',(23.850365357760435,-8.869624024894897,-80.250565652844315));
#284=CARTESIAN_POINT('',(24.297184818099041,-7.403162156479962,-80.995307894264741));
#285=CARTESIAN_POINT('',(24.523587920967980,-6.660106970395357,-81.372668258487408));
#286=CARTESIAN_POINT('',(24.715777925646680,-5.909283912434732,-81.690450847366392));
#287=CARTESIAN_POINT('',(24.876071766590972,-5.132353598829226,-81.954495770394232));
#288=CARTESIAN_POINT('',(25.087514100567308,-4.107510985551230,-82.302795333688195));
#289=CARTESIAN_POINT('',(25.240811873906413,-3.044272088995589,-82.553244269822642));
#290=CARTESIAN_POINT('',(25.325094743667709,-1.949250169745824,-82.690843391455871));
#291=CARTESIAN_POINT('',(25.380349784606164,-1.231364303400562,-82.781052055689457));
#292=CARTESIAN_POINT('',(25.405165452990886,-0.506727342053895,-82.821463221044880));
#293=CARTESIAN_POINT('',(25.399100126371149,0.213805450287873,-82.811575483867074));
#294=CARTESIAN_POINT('',(25.392659406644800,0.978933210105007,-82.801075778264604));
#295=CARTESIAN_POINT('',(25.351632073655768,1.742301389322444,-82.734247417749614));
#296=CARTESIAN_POINT('',(25.276595665514989,2.500742202240897,-82.611626480109024));
#297=CARTESIAN_POINT('',(25.211530502840713,3.158397280543215,-82.505300078665485));
#298=CARTESIAN_POINT('',(25.121856892616229,3.802693293220443,-82.358575127928560));
#299=CARTESIAN_POINT('',(25.010385209710066,4.431775226917073,-82.175446494812064));
#300=CARTESIAN_POINT('',(24.840263874179943,5.391841998389714,-81.895966658970636));
#301=CARTESIAN_POINT('',(24.619281697214916,6.317001228628288,-81.531566127715507));
#302=CARTESIAN_POINT('',(24.357290167226154,7.202944933119220,-81.095427399768141));
#303=CARTESIAN_POINT('',(24.202368906909911,7.726822614488780,-80.837529133327138));
#304=CARTESIAN_POINT('',(24.032171762027382,8.240744828165694,-80.552998367242722));
#305=CARTESIAN_POINT('',(23.845001264262802,8.750766521128600,-80.238085354468410));
#306=CARTESIAN_POINT('',(23.233437319793964,10.417219739121244,-79.209133427979111));
#307=CARTESIAN_POINT('',(22.446372029813023,12.019067606481808,-77.867261176326835));
#308=CARTESIAN_POINT('',(21.503615930229593,13.518672343287854,-76.196957295957645));
#309=CARTESIAN_POINT('',(20.805132157110307,14.629722778511418,-74.959436629550325));
#310=CARTESIAN_POINT('',(20.024667752442070,15.679291559711404,-73.547151512713057));
#311=CARTESIAN_POINT('',(19.177975579251822,16.654286315589168,-71.958692361645888));
#312=CARTESIAN_POINT('',(18.229282411934129,17.746738675915854,-70.178871559119017));
#313=CARTESIAN_POINT('',(17.196220682953566,18.746886297019682,-68.176112921397518));
#314=CARTESIAN_POINT('',(16.103730752086946,19.642552172879395,-65.939421464428079));
#315=CARTESIAN_POINT('',(15.592270311487090,20.061867400008378,-64.892291266019697));
#316=CARTESIAN_POINT('',(15.066293715149078,20.459191089718392,-63.790157971336647));
#317=CARTESIAN_POINT('',(14.540183984912167,20.826498738023712,-62.656601215883761));
#318=CARTESIAN_POINT('',(12.832180812811949,22.018954593496399,-58.976535209126347));
#319=CARTESIAN_POINT('',(11.099228086470282,22.915873252631602,-54.920948396813110));
#320=CARTESIAN_POINT('',(9.446462082516909,23.578048140666141,-50.502918354086901));
#321=CARTESIAN_POINT('',(8.276820167517387,24.046661061220359,-47.376333521546087));
#322=CARTESIAN_POINT('',(7.147600109715854,24.397480185585657,-44.068161605957350));
#323=CARTESIAN_POINT('',(6.099732050502144,24.656708395730291,-40.582356432760072));
#324=CARTESIAN_POINT('',(5.533221033210718,24.796855464579654,-38.697818568108005));
#325=CARTESIAN_POINT('',(4.988296800061052,24.910887001897500,-36.754161214329955));
#326=CARTESIAN_POINT('',(4.471711367692179,25.003275734272343,-34.747115985026603));
#327=CARTESIAN_POINT('',(2.989664247236711,25.268332482293246,-28.989044974249595));
#328=CARTESIAN_POINT('',(1.745568142995861,25.352488974128043,-22.725873393163369));
#329=CARTESIAN_POINT('',(0.948813305325574,25.382272422138190,-16.005611279733337));
#330=CARTESIAN_POINT('',(0.359355502203824,25.404306911297724,-11.033804703236513));
#331=CARTESIAN_POINT('',(0.014970709315902,25.399999723397805,-5.811696639772691));
#332=CARTESIAN_POINT('',(0.000476891797369,25.399999995523107,-0.358832551963196));
#333=CARTESIAN_POINT('',(0.000158964011358,25.400000001492288,-0.239221818297165));
#334=CARTESIAN_POINT('',(-1.570989E-015,25.399999999999999,-0.119611156194581));
#335=CARTESIAN_POINT('',(-1.555250E-015,25.399999999999999,-4.748738E-015));
#336=B_SPLINE_CURVE_WITH_KNOTS('',3,(#239,#240,#241,#242,#243,#244,#245,#246,#247,#248,#249,#250,#251,#252,#253,#254,#255,#256,#257,#258,#259,#260,#261,#262,#263,#264,#265,#266,#267,#268,#269,#270,#271,#272,#273,#274,#275,#276,#277,#278,#279,#280,#281,#282,#283,#284,#285,#286,#287,#288,#289,#290,#291,#292,#293,#294,#295,#296,#297,#298,#299,#300,#301,#302,#303,#304,#305,#306,#307,#308,#309,#310,#311,#312,#313,#314,#315,#316,#317,#318,#319,#320,#321,#322,#323,#324,#325,#326,#327,#328,#329,#330,#331,#332,#333,#334,#335),.UNSPECIFIED.,.F.,.U.,(4,3,3,3,3,3,3,3,3,3,3,3,3,3,3,3,3,3,3,3,3,3,3,3,3,3,3,3,3,3,3,3,4),(-33.257586941353573,-33.205261227777306,-31.129932401041223,-29.959907391540352,-29.415425609474099,-25.738497408289838,-24.579491685383577,-24.003492542790259,-22.503274258865869,-21.725511521572884,-21.302249921239135,-20.897348560257839,-19.591264275241723,-19.131713579799452,-18.771115896655893,-17.429108275324015,-16.749113967750542,-15.852138871034709,-15.264090601793537,-14.639647051561022,-14.098182951886184,-13.271833215551437,-12.783194736969838,-11.186609383243409,-10.003706443161041,-8.678299202619566,-8.057796118729501,-6.043347089047126,-4.617746601675839,-3.847021341705729,-1.635865005060609,0.0,0.035883346858373),.UNSPECIFIED.);
#337=EDGE_CURVE('',#236,#238,#336,.T.);
#338=ORIENTED_EDGE('',*,*,#337,.F.);
#339=CARTESIAN_POINT('',(0.0,0.0,0.0));
#340=DIRECTION('',(0.0,0.0,-1.0));
#341=DIRECTION('',(-1.0,0.0,0.0));
#342=AXIS2_PLACEMENT_3D('',#339,#340,#341);
#343=CIRCLE('',#342,25.399999999999999);
#344=EDGE_CURVE('',#236,#238,#343,.T.);
#345=ORIENTED_EDGE('',*,*,#344,.T.);
#346=EDGE_LOOP('',(#338,#345));
#347=FACE_BOUND('',#346,.T.);
#348=ADVANCED_FACE('',(#234,#347),#223,.T.);
#349=CARTESIAN_POINT('',(0.0,0.0,-135.0));
#350=DIRECTION('',(0.0,0.0,-1.0));
#351=DIRECTION('',(-1.0,0.0,0.0));
#352=AXIS2_PLACEMENT_3D('',#349,#350,#351);
#353=PLANE('',#352);
#354=ORIENTED_EDGE('',*,*,#231,.T.);
#355=EDGE_LOOP('',(#354));
#356=FACE_OUTER_BOUND('',#355,.T.);
#357=ORIENTED_EDGE('',*,*,#187,.T.);
#358=EDGE_LOOP('',(#357));
#359=FACE_BOUND('',#358,.T.);
#360=ADVANCED_FACE('',(#356,#359),#353,.T.);
#361=CARTESIAN_POINT('',(67.500000000000000,0.0,-8.881784E-015));
#362=DIRECTION('',(0.0,1.0,0.0));
#363=DIRECTION('',(0.0,0.0,1.0));
#364=AXIS2_PLACEMENT_3D('',#361,#362,#363);
#365=TOROIDAL_SURFACE('',#364,67.500000000000000,25.399999999999999);
#366=CARTESIAN_POINT('',(67.499999999999986,3.110603E-015,-42.100000000000009));
#367=VERTEX_POINT('',#366);
#368=CARTESIAN_POINT('',(67.499999999999986,0.0,-67.500000000000014));
#369=DIRECTION('',(1.0,0.0,0.0));
#370=DIRECTION('',(0.0,0.0,-1.0));
#371=AXIS2_PLACEMENT_3D('',#368,#369,#370);
#372=CIRCLE('',#371,25.399999999999999);
#373=EDGE_CURVE('',#367,#367,#372,.T.);
#374=ORIENTED_EDGE('',*,*,#373,.F.);
#375=EDGE_LOOP('',(#374));
#376=FACE_OUTER_BOUND('',#375,.T.);
#377=ORIENTED_EDGE('',*,*,#337,.T.);
#378=CARTESIAN_POINT('',(0.0,0.0,0.0));
#379=DIRECTION('',(0.0,0.0,-1.0));
#380=DIRECTION('',(-1.0,0.0,0.0));
#381=AXIS2_PLACEMENT_3D('',#378,#379,#380);
#382=CIRCLE('',#381,25.399999999999999);
#383=EDGE_CURVE('',#238,#236,#382,.T.);
#384=ORIENTED_EDGE('',*,*,#383,.T.);
#385=EDGE_LOOP('',(#377,#384));
#386=FACE_BOUND('',#385,.T.);
#387=ADVANCED_FACE('',(#376,#386),#365,.T.);
#388=CARTESIAN_POINT('',(67.499999999999986,0.0,-67.500000000000014));
#389=DIRECTION('',(1.0,0.0,0.0));
#390=DIRECTION('',(0.0,0.0,-1.0));
#391=AXIS2_PLACEMENT_3D('',#388,#389,#390);
#392=PLANE('',#391);
#393=ORIENTED_EDGE('',*,*,#373,.T.);
#394=EDGE_LOOP('',(#393));
#395=FACE_OUTER_BOUND('',#394,.T.);
#396=ORIENTED_EDGE('',*,*,#204,.T.);
#397=EDGE_LOOP('',(#396));
#398=FACE_BOUND('',#397,.T.);
#399=ADVANCED_FACE('',(#395,#398),#392,.T.);
#400=CARTESIAN_POINT('',(0.0,0.0,0.0));
#401=DIRECTION('',(0.0,0.0,-1.0));
#402=DIRECTION('',(-1.0,0.0,0.0));
#403=AXIS2_PLACEMENT_3D('',#400,#401,#402);
#404=PLANE('',#403);
#405=ORIENTED_EDGE('',*,*,#383,.F.);
#406=ORIENTED_EDGE('',*,*,#344,.F.);
#407=EDGE_LOOP('',(#405,#406));
#408=FACE_OUTER_BOUND('',#407,.T.);
#409=ORIENTED_EDGE('',*,*,#214,.T.);
#410=ORIENTED_EDGE('',*,*,#176,.T.);
#411=EDGE_LOOP('',(#409,#410));
#412=FACE_BOUND('',#411,.T.);
#413=ADVANCED_FACE('',(#408,#412),#404,.F.);
#414=CLOSED_SHELL('',(#191,#218,#348,#360,#387,#399,#413));
#415=MANIFOLD_SOLID_BREP('',#414);
#416=COLOUR_RGB('Metall - Stahl',0.639216005802155,0.639216005802155,0.686275005340576);
#417=FILL_AREA_STYLE_COLOUR('Metall - Stahl',#416);
#418=FILL_AREA_STYLE('Metall - Stahl',(#417));
#419=SURFACE_STYLE_FILL_AREA(#418);
#420=SURFACE_SIDE_STYLE('Metall - Stahl',(#419));
#421=SURFACE_STYLE_USAGE(.BOTH.,#420);
#422=PRESENTATION_STYLE_ASSIGNMENT((#421));
#423=STYLED_ITEM('',(#422),#415);
#424=MECHANICAL_DESIGN_GEOMETRIC_PRESENTATION_REPRESENTATION('',(#423),#36);
#425=ADVANCED_BREP_SHAPE_REPRESENTATION('ABSR',(#415),#36);
#426=SHAPE_REPRESENTATION_RELATIONSHIP('SRR','None',#425,#41);
ENDSEC;
END-ISO-10303-21;
