ISO-10303-21;
HEADER;
/****************************************************************
 * Generated by software with PDE/Lib inside                    *
 * PDElib Version v51a, created Thu 12/14/2006                  *
 * International Technegroup Inc. (www.iti-oh.com)              *
 ****************************************************************/
FILE_DESCRIPTION((''),'2;1');
FILE_NAME('T:\\Arbeitspl\S\dtze\\Aushilfe\\KPeters\\3D\\Steps 08_10\\15000-\\16363\\16363200X.stp','2010-08-11T07:57:04',('thilbrands'),(''),'Autodesk Inventor 2008','Autodesk Inventor 2008','');
FILE_SCHEMA(('AUTOMOTIVE_DESIGN { 1 0 10303 214 1 1 1 1 }'));
ENDSEC;
DATA;
#5=APPLICATION_CONTEXT('automotive design');
#6=APPLICATION_PROTOCOL_DEFINITION('International Standard','automotive_design',2001,#5);
#7=PRODUCT_CONTEXT('',#5,'mechanical');
#8=PRODUCT('163634003','163634003',$,(#7));
#9=PRODUCT_RELATED_PRODUCT_CATEGORY('part',$,(#8));
#10=PRODUCT_DEFINITION_FORMATION('',$,#8);
#11=PRODUCT_DEFINITION_CONTEXT('part definition',#5,'design');
#12=PRODUCT_DEFINITION('',$,#10,#11);
#18=(NAMED_UNIT(*)PLANE_ANGLE_UNIT()SI_UNIT($,.RADIAN.));
#19=DIMENSIONAL_EXPONENTS(0.0,0.0,0.0,0.0,0.0,0.0,0.0);
#20=PLANE_ANGLE_MEASURE_WITH_UNIT(PLANE_ANGLE_MEASURE(0.017453292500000),#18);
#24=(CONVERSION_BASED_UNIT('DEGREE',#20)NAMED_UNIT(#19)PLANE_ANGLE_UNIT());
#28=(NAMED_UNIT(*)SI_UNIT($,.STERADIAN.)SOLID_ANGLE_UNIT());
#32=(LENGTH_UNIT()NAMED_UNIT(*)SI_UNIT(.MILLI.,.METRE.));
#34=UNCERTAINTY_MEASURE_WITH_UNIT(LENGTH_MEASURE(0.010000000000000),#32,'DISTANCE_ACCURACY_VALUE','');
#36=(GEOMETRIC_REPRESENTATION_CONTEXT(3)GLOBAL_UNCERTAINTY_ASSIGNED_CONTEXT((#34))GLOBAL_UNIT_ASSIGNED_CONTEXT((#24,#28,#32))REPRESENTATION_CONTEXT('None','None'));
#37=AXIS2_PLACEMENT_3D('',#38,#39,#40);
#38=CARTESIAN_POINT('',(0.0,0.0,0.0));
#39=DIRECTION('',(0.0,0.0,1.0));
#40=DIRECTION('',(1.0,0.0,0.0));
#41=SHAPE_REPRESENTATION('',(#37),#36);
#42=PRODUCT_DEFINITION_SHAPE('','',#12);
#43=SHAPE_DEFINITION_REPRESENTATION(#42,#41);
#49=(NAMED_UNIT(*)PLANE_ANGLE_UNIT()SI_UNIT($,.RADIAN.));
#50=DIMENSIONAL_EXPONENTS(0.0,0.0,0.0,0.0,0.0,0.0,0.0);
#51=PLANE_ANGLE_MEASURE_WITH_UNIT(PLANE_ANGLE_MEASURE(0.017453292500000),#49);
#55=(CONVERSION_BASED_UNIT('DEGREE',#51)NAMED_UNIT(#50)PLANE_ANGLE_UNIT());
#59=(NAMED_UNIT(*)SI_UNIT($,.STERADIAN.)SOLID_ANGLE_UNIT());
#63=(LENGTH_UNIT()NAMED_UNIT(*)SI_UNIT(.MILLI.,.METRE.));
#65=UNCERTAINTY_MEASURE_WITH_UNIT(LENGTH_MEASURE(0.000001000000000),#63,'DISTANCE_ACCURACY_VALUE','');
#67=(GEOMETRIC_REPRESENTATION_CONTEXT(3)GLOBAL_UNCERTAINTY_ASSIGNED_CONTEXT((#65))GLOBAL_UNIT_ASSIGNED_CONTEXT((#55,#59,#63))REPRESENTATION_CONTEXT('','3D'));
#68=CARTESIAN_POINT('',(-3.196318687970567,0.0,0.0));
#69=DIRECTION('',(1.0,0.0,0.0));
#70=DIRECTION('',(0.0,1.0,0.0));
#71=AXIS2_PLACEMENT_3D('',#68,#69,#70);
#72=CYLINDRICAL_SURFACE('',#71,23.800000000000004);
#73=CARTESIAN_POINT('',(-6.392637375941139,23.799999999999997,0.0));
#74=VERTEX_POINT('',#73);
#75=CARTESIAN_POINT('',(-6.392637375941139,0.0,0.0));
#76=DIRECTION('',(1.0,0.0,0.0));
#77=DIRECTION('',(0.0,1.0,0.0));
#78=AXIS2_PLACEMENT_3D('',#75,#76,#77);
#79=CIRCLE('',#78,23.799999999999997);
#80=EDGE_CURVE('',#74,#74,#79,.T.);
#81=ORIENTED_EDGE('',*,*,#80,.F.);
#82=EDGE_LOOP('',(#81));
#83=FACE_OUTER_BOUND('',#82,.T.);
#84=CARTESIAN_POINT('',(4.440892E-015,23.800000000000008,0.0));
#85=VERTEX_POINT('',#84);
#86=CARTESIAN_POINT('',(4.440892E-015,0.0,0.0));
#87=DIRECTION('',(1.0,0.0,0.0));
#88=DIRECTION('',(0.0,1.0,0.0));
#89=AXIS2_PLACEMENT_3D('',#86,#87,#88);
#90=CIRCLE('',#89,23.800000000000008);
#91=EDGE_CURVE('',#85,#85,#90,.T.);
#92=ORIENTED_EDGE('',*,*,#91,.T.);
#93=EDGE_LOOP('',(#92));
#94=FACE_BOUND('',#93,.T.);
#95=ADVANCED_FACE('',(#83,#94),#72,.F.);
#96=CARTESIAN_POINT('',(-6.392637375941142,0.0,0.0));
#97=DIRECTION('',(1.0,0.0,0.0));
#98=DIRECTION('',(0.0,0.0,-1.0));
#99=AXIS2_PLACEMENT_3D('',#96,#97,#98);
#100=TOROIDAL_SURFACE('',#99,27.000000000000011,3.200000000000001);
#101=CARTESIAN_POINT('',(-9.581507177461507,26.733336562402247,0.0));
#102=VERTEX_POINT('',#101);
#103=CARTESIAN_POINT('',(-9.581507177461507,0.0,0.0));
#104=DIRECTION('',(1.0,0.0,0.0));
#105=DIRECTION('',(0.0,1.0,0.0));
#106=AXIS2_PLACEMENT_3D('',#103,#104,#105);
#107=CIRCLE('',#106,26.733336562402247);
#108=EDGE_CURVE('',#102,#102,#107,.T.);
#109=ORIENTED_EDGE('',*,*,#108,.F.);
#110=EDGE_LOOP('',(#109));
#111=FACE_OUTER_BOUND('',#110,.T.);
#112=ORIENTED_EDGE('',*,*,#80,.T.);
#113=EDGE_LOOP('',(#112));
#114=FACE_BOUND('',#113,.T.);
#115=ADVANCED_FACE('',(#111,#114),#100,.T.);
#116=CARTESIAN_POINT('',(-10.710999999999988,-3.444940E-015,28.130999999999997));
#117=CARTESIAN_POINT('',(-9.575941876055737,-3.402723E-015,27.786256676920914));
#118=CARTESIAN_POINT('',(-9.575941876055737,-3.257453E-015,26.599999999999998));
#119=CARTESIAN_POINT('',(-9.575941876055737,-3.112183E-015,25.413743323079082));
#120=CARTESIAN_POINT('',(-10.710999999999988,-3.069966E-015,25.068999999999999));
#121=CARTESIAN_POINT('',(-10.710999999999988,-28.130999999999990,28.130999999999986));
#122=CARTESIAN_POINT('',(-9.575941876055737,-27.786256676920910,27.786256676920903));
#123=CARTESIAN_POINT('',(-9.575941876055737,-26.599999999999994,26.599999999999987));
#124=CARTESIAN_POINT('',(-9.575941876055737,-25.413743323079078,25.413743323079071));
#125=CARTESIAN_POINT('',(-10.710999999999988,-25.068999999999996,25.068999999999992));
#126=CARTESIAN_POINT('',(-10.710999999999988,-28.130999999999997,-3.444940E-015));
#127=CARTESIAN_POINT('',(-9.575941876055737,-27.786256676920914,-3.402723E-015));
#128=CARTESIAN_POINT('',(-9.575941876055737,-26.599999999999998,-3.257453E-015));
#129=CARTESIAN_POINT('',(-9.575941876055737,-25.413743323079082,-3.112183E-015));
#130=CARTESIAN_POINT('',(-10.710999999999988,-25.068999999999999,-3.069966E-015));
#131=CARTESIAN_POINT('',(-10.710999999999988,-28.130999999999986,-28.130999999999990));
#132=CARTESIAN_POINT('',(-9.575941876055737,-27.786256676920903,-27.786256676920910));
#133=CARTESIAN_POINT('',(-9.575941876055737,-26.599999999999987,-26.599999999999994));
#134=CARTESIAN_POINT('',(-9.575941876055737,-25.413743323079071,-25.413743323079078));
#135=CARTESIAN_POINT('',(-10.710999999999988,-25.068999999999992,-25.068999999999996));
#136=CARTESIAN_POINT('',(-10.710999999999988,3.444940E-015,-28.130999999999997));
#137=CARTESIAN_POINT('',(-9.575941876055737,3.402723E-015,-27.786256676920914));
#138=CARTESIAN_POINT('',(-9.575941876055737,3.257453E-015,-26.599999999999998));
#139=CARTESIAN_POINT('',(-9.575941876055737,3.112183E-015,-25.413743323079082));
#140=CARTESIAN_POINT('',(-10.710999999999988,3.069966E-015,-25.068999999999999));
#141=CARTESIAN_POINT('',(-10.710999999999988,28.130999999999990,-28.130999999999986));
#142=CARTESIAN_POINT('',(-9.575941876055737,27.786256676920910,-27.786256676920903));
#143=CARTESIAN_POINT('',(-9.575941876055737,26.599999999999994,-26.599999999999987));
#144=CARTESIAN_POINT('',(-9.575941876055737,25.413743323079078,-25.413743323079071));
#145=CARTESIAN_POINT('',(-10.710999999999988,25.068999999999996,-25.068999999999992));
#146=CARTESIAN_POINT('',(-10.710999999999988,28.130999999999997,3.444940E-015));
#147=CARTESIAN_POINT('',(-9.575941876055737,27.786256676920914,3.402723E-015));
#148=CARTESIAN_POINT('',(-9.575941876055737,26.599999999999998,3.257453E-015));
#149=CARTESIAN_POINT('',(-9.575941876055737,25.413743323079082,3.112183E-015));
#150=CARTESIAN_POINT('',(-10.710999999999988,25.068999999999999,3.069966E-015));
#151=CARTESIAN_POINT('',(-10.710999999999988,28.130999999999986,28.130999999999990));
#152=CARTESIAN_POINT('',(-9.575941876055737,27.786256676920903,27.786256676920910));
#153=CARTESIAN_POINT('',(-9.575941876055737,26.599999999999987,26.599999999999994));
#154=CARTESIAN_POINT('',(-9.575941876055737,25.413743323079071,25.413743323079078));
#155=CARTESIAN_POINT('',(-10.710999999999988,25.068999999999992,25.068999999999996));
#156=CARTESIAN_POINT('',(-10.710999999999988,-3.444940E-015,28.130999999999997));
#157=CARTESIAN_POINT('',(-9.575941876055737,-3.402723E-015,27.786256676920914));
#158=CARTESIAN_POINT('',(-9.575941876055737,-3.257453E-015,26.599999999999998));
#159=CARTESIAN_POINT('',(-9.575941876055737,-3.112183E-015,25.413743323079082));
#160=CARTESIAN_POINT('',(-10.710999999999988,-3.069966E-015,25.068999999999999));
#168=(BOUNDED_SURFACE()B_SPLINE_SURFACE(2,2,((#116,#121,#126,#131,#136,#141,#146,#151,#156),(#117,#122,#127,#132,#137,#142,#147,#152,#157),(#118,#123,#128,#133,#138,#143,#148,#153,#158),(#119,#124,#129,#134,#139,#144,#149,#154,#159),(#120,#125,#130,#135,#140,#145,#150,#155,#160)),.UNSPECIFIED.,.F.,.T.,.U.)B_SPLINE_SURFACE_WITH_KNOTS((3,2,3),(3,2,2,2,3),(0.294868933285930,1.570796326794897,2.846723720303863),(0.0,1.570796326794897,3.141592653589793,4.712388980384690,6.283185307179586),.UNSPECIFIED.)GEOMETRIC_REPRESENTATION_ITEM()RATIONAL_B_SPLINE_SURFACE(((1.0,0.707106781186548,1.0,0.707106781186548,1.0,0.707106781186548,1.0,0.707106781186548,1.0),(0.803310165102487,0.568026065140053,0.803310165102487,0.568026065140053,0.803310165102487,0.568026065140053,0.803310165102487,0.568026065140053,0.803310165102487),(1.0,0.707106781186548,1.0,0.707106781186548,1.0,0.707106781186548,1.0,0.707106781186548,1.0),(0.803310165102487,0.568026065140053,0.803310165102487,0.568026065140053,0.803310165102487,0.568026065140053,0.803310165102487,0.568026065140053,0.803310165102487),(1.0,0.707106781186548,1.0,0.707106781186548,1.0,0.707106781186548,1.0,0.707106781186548,1.0)))REPRESENTATION_ITEM('')SURFACE());
#169=CARTESIAN_POINT('',(-10.710999999999988,28.130999999999990,0.0));
#170=VERTEX_POINT('',#169);
#171=CARTESIAN_POINT('',(-10.710999999999988,0.0,0.0));
#172=DIRECTION('',(1.0,0.0,0.0));
#173=DIRECTION('',(0.0,1.0,0.0));
#174=AXIS2_PLACEMENT_3D('',#171,#172,#173);
#175=CIRCLE('',#174,28.130999999999990);
#176=EDGE_CURVE('',#170,#170,#175,.T.);
#177=ORIENTED_EDGE('',*,*,#176,.F.);
#178=EDGE_LOOP('',(#177));
#179=FACE_OUTER_BOUND('',#178,.T.);
#180=ORIENTED_EDGE('',*,*,#108,.T.);
#181=EDGE_LOOP('',(#180));
#182=FACE_BOUND('',#181,.T.);
#183=ADVANCED_FACE('',(#179,#182),#168,.T.);
#184=CARTESIAN_POINT('',(-11.705499999999990,0.0,0.0));
#185=DIRECTION('',(-1.0,0.0,0.0));
#186=DIRECTION('',(0.0,1.0,0.0));
#187=AXIS2_PLACEMENT_3D('',#184,#185,#186);
#188=CONICAL_SURFACE('',#187,28.432999999999993,16.891971914830769);
#189=CARTESIAN_POINT('',(-12.699999999999992,28.734999999999999,0.0));
#190=VERTEX_POINT('',#189);
#191=CARTESIAN_POINT('',(-12.699999999999992,0.0,0.0));
#192=DIRECTION('',(1.0,0.0,0.0));
#193=DIRECTION('',(0.0,1.0,0.0));
#194=AXIS2_PLACEMENT_3D('',#191,#192,#193);
#195=CIRCLE('',#194,28.734999999999999);
#196=EDGE_CURVE('',#190,#190,#195,.T.);
#197=ORIENTED_EDGE('',*,*,#196,.F.);
#198=EDGE_LOOP('',(#197));
#199=FACE_OUTER_BOUND('',#198,.T.);
#200=ORIENTED_EDGE('',*,*,#176,.T.);
#201=EDGE_LOOP('',(#200));
#202=FACE_BOUND('',#201,.T.);
#203=ADVANCED_FACE('',(#199,#202),#188,.F.);
#204=CARTESIAN_POINT('',(-12.699999999999992,31.042500000000004,0.0));
#205=DIRECTION('',(-1.0,0.0,0.0));
#206=DIRECTION('',(0.0,0.0,1.0));
#207=AXIS2_PLACEMENT_3D('',#204,#205,#206);
#208=PLANE('',#207);
#209=CARTESIAN_POINT('',(-12.699999999999994,33.350000000000001,0.0));
#210=VERTEX_POINT('',#209);
#211=CARTESIAN_POINT('',(-12.699999999999994,0.0,0.0));
#212=DIRECTION('',(1.0,0.0,0.0));
#213=DIRECTION('',(0.0,1.0,0.0));
#214=AXIS2_PLACEMENT_3D('',#211,#212,#213);
#215=CIRCLE('',#214,33.350000000000001);
#216=EDGE_CURVE('',#210,#210,#215,.T.);
#217=ORIENTED_EDGE('',*,*,#216,.F.);
#218=EDGE_LOOP('',(#217));
#219=FACE_OUTER_BOUND('',#218,.T.);
#220=ORIENTED_EDGE('',*,*,#196,.T.);
#221=EDGE_LOOP('',(#220));
#222=FACE_BOUND('',#221,.T.);
#223=ADVANCED_FACE('',(#219,#222),#208,.T.);
#224=CARTESIAN_POINT('',(-11.099999999999994,0.0,0.0));
#225=DIRECTION('',(1.0,0.0,0.0));
#226=DIRECTION('',(0.0,1.0,0.0));
#227=AXIS2_PLACEMENT_3D('',#224,#225,#226);
#228=CYLINDRICAL_SURFACE('',#227,33.350000000000001);
#229=CARTESIAN_POINT('',(-9.499999999999995,33.350000000000001,0.0));
#230=VERTEX_POINT('',#229);
#231=CARTESIAN_POINT('',(-9.499999999999995,0.0,0.0));
#232=DIRECTION('',(1.0,0.0,0.0));
#233=DIRECTION('',(0.0,1.0,0.0));
#234=AXIS2_PLACEMENT_3D('',#231,#232,#233);
#235=CIRCLE('',#234,33.350000000000001);
#236=EDGE_CURVE('',#230,#230,#235,.T.);
#237=ORIENTED_EDGE('',*,*,#236,.F.);
#238=EDGE_LOOP('',(#237));
#239=FACE_OUTER_BOUND('',#238,.T.);
#240=ORIENTED_EDGE('',*,*,#216,.T.);
#241=EDGE_LOOP('',(#240));
#242=FACE_BOUND('',#241,.T.);
#243=ADVANCED_FACE('',(#239,#242),#228,.T.);
#244=CARTESIAN_POINT('',(-9.499999999999995,31.150000000000002,0.0));
#245=DIRECTION('',(1.0,0.0,0.0));
#246=DIRECTION('',(0.0,0.0,-1.0));
#247=AXIS2_PLACEMENT_3D('',#244,#245,#246);
#248=PLANE('',#247);
#249=ORIENTED_EDGE('',*,*,#236,.T.);
#250=EDGE_LOOP('',(#249));
#251=FACE_OUTER_BOUND('',#250,.T.);
#252=CARTESIAN_POINT('',(-9.499999999999993,28.950000000000003,0.0));
#253=VERTEX_POINT('',#252);
#254=CARTESIAN_POINT('',(-9.499999999999993,0.0,0.0));
#255=DIRECTION('',(1.0,0.0,0.0));
#256=DIRECTION('',(0.0,1.0,0.0));
#257=AXIS2_PLACEMENT_3D('',#254,#255,#256);
#258=CIRCLE('',#257,28.950000000000003);
#259=EDGE_CURVE('',#253,#253,#258,.T.);
#260=ORIENTED_EDGE('',*,*,#259,.F.);
#261=EDGE_LOOP('',(#260));
#262=FACE_BOUND('',#261,.T.);
#263=ADVANCED_FACE('',(#251,#262),#248,.T.);
#264=CARTESIAN_POINT('',(-7.599999999999993,0.0,0.0));
#265=DIRECTION('',(-1.0,0.0,0.0));
#266=DIRECTION('',(0.0,1.0,0.0));
#267=AXIS2_PLACEMENT_3D('',#264,#265,#266);
#268=CONICAL_SURFACE('',#267,27.237500000000004,42.028836738049407);
#269=CARTESIAN_POINT('',(-5.699999999999992,25.525000000000002,0.0));
#270=VERTEX_POINT('',#269);
#271=CARTESIAN_POINT('',(-5.699999999999992,0.0,0.0));
#272=DIRECTION('',(1.0,0.0,0.0));
#273=DIRECTION('',(0.0,1.0,0.0));
#274=AXIS2_PLACEMENT_3D('',#271,#272,#273);
#275=CIRCLE('',#274,25.525000000000002);
#276=EDGE_CURVE('',#270,#270,#275,.T.);
#277=ORIENTED_EDGE('',*,*,#276,.F.);
#278=EDGE_LOOP('',(#277));
#279=FACE_OUTER_BOUND('',#278,.T.);
#280=ORIENTED_EDGE('',*,*,#259,.T.);
#281=EDGE_LOOP('',(#280));
#282=FACE_BOUND('',#281,.T.);
#283=ADVANCED_FACE('',(#279,#282),#268,.T.);
#284=CARTESIAN_POINT('',(-2.849999999999993,0.0,0.0));
#285=DIRECTION('',(1.0,0.0,0.0));
#286=DIRECTION('',(0.0,1.0,0.0));
#287=AXIS2_PLACEMENT_3D('',#284,#285,#286);
#288=CYLINDRICAL_SURFACE('',#287,25.525000000000002);
#289=CARTESIAN_POINT('',(3.885781E-015,25.525000000000002,0.0));
#290=VERTEX_POINT('',#289);
#291=CARTESIAN_POINT('',(3.885781E-015,0.0,0.0));
#292=DIRECTION('',(1.0,0.0,0.0));
#293=DIRECTION('',(0.0,1.0,0.0));
#294=AXIS2_PLACEMENT_3D('',#291,#292,#293);
#295=CIRCLE('',#294,25.525000000000002);
#296=EDGE_CURVE('',#290,#290,#295,.T.);
#297=ORIENTED_EDGE('',*,*,#296,.F.);
#298=EDGE_LOOP('',(#297));
#299=FACE_OUTER_BOUND('',#298,.T.);
#300=ORIENTED_EDGE('',*,*,#276,.T.);
#301=EDGE_LOOP('',(#300));
#302=FACE_BOUND('',#301,.T.);
#303=ADVANCED_FACE('',(#299,#302),#288,.T.);
#304=CARTESIAN_POINT('',(4.163336E-015,24.662500000000005,0.0));
#305=DIRECTION('',(1.0,0.0,0.0));
#306=DIRECTION('',(0.0,0.0,-1.0));
#307=AXIS2_PLACEMENT_3D('',#304,#305,#306);
#308=PLANE('',#307);
#309=ORIENTED_EDGE('',*,*,#296,.T.);
#310=EDGE_LOOP('',(#309));
#311=FACE_OUTER_BOUND('',#310,.T.);
#312=ORIENTED_EDGE('',*,*,#91,.F.);
#313=EDGE_LOOP('',(#312));
#314=FACE_BOUND('',#313,.T.);
#315=ADVANCED_FACE('',(#311,#314),#308,.T.);
#316=CLOSED_SHELL('',(#95,#115,#183,#203,#223,#243,#263,#283,#303,#315));
#317=MANIFOLD_SOLID_BREP('',#316);
#318=COLOUR_RGB('Metall - Stahl',0.639216005802155,0.639216005802155,0.686275005340576);
#319=FILL_AREA_STYLE_COLOUR('Metall - Stahl',#318);
#320=FILL_AREA_STYLE('Metall - Stahl',(#319));
#321=SURFACE_STYLE_FILL_AREA(#320);
#322=SURFACE_SIDE_STYLE('Metall - Stahl',(#321));
#323=SURFACE_STYLE_USAGE(.BOTH.,#322);
#324=PRESENTATION_STYLE_ASSIGNMENT((#323));
#325=STYLED_ITEM('',(#324),#317);
#326=MECHANICAL_DESIGN_GEOMETRIC_PRESENTATION_REPRESENTATION('',(#325),#36);
#327=ADVANCED_BREP_SHAPE_REPRESENTATION('ABSR',(#317),#36);
#328=SHAPE_REPRESENTATION_RELATIONSHIP('SRR','None',#327,#41);
ENDSEC;
END-ISO-10303-21;
