ISO-10303-21;
HEADER;
/****************************************************************
 * Generated by software with PDE/Lib inside                    *
 * PDElib Version v51a, created Thu 12/14/2006                  *
 * International Technegroup Inc. (www.iti-oh.com)              *
 ****************************************************************/
FILE_DESCRIPTION((''),'2;1');
FILE_NAME('T:\\Arbeitspl\S\dtze\\Aushilfe\\KPeters\\3D\\Steps 08_10\\17500\\17500076X.stp','2010-08-10T15:32:28',('thilbrands'),(''),'Autodesk Inventor 2008','Autodesk Inventor 2008','');
FILE_SCHEMA(('AUTOMOTIVE_DESIGN { 1 0 10303 214 1 1 1 1 }'));
ENDSEC;
DATA;
#5=APPLICATION_CONTEXT('automotive design');
#6=APPLICATION_PROTOCOL_DEFINITION('International Standard','automotive_design',2001,#5);
#7=PRODUCT_CONTEXT('',#5,'mechanical');
#8=PRODUCT('175000251','175000251',$,(#7));
#9=PRODUCT_RELATED_PRODUCT_CATEGORY('part',$,(#8));
#10=PRODUCT_DEFINITION_FORMATION('',$,#8);
#11=PRODUCT_DEFINITION_CONTEXT('part definition',#5,'design');
#12=PRODUCT_DEFINITION('',$,#10,#11);
#18=(NAMED_UNIT(*)PLANE_ANGLE_UNIT()SI_UNIT($,.RADIAN.));
#19=DIMENSIONAL_EXPONENTS(0.0,0.0,0.0,0.0,0.0,0.0,0.0);
#20=PLANE_ANGLE_MEASURE_WITH_UNIT(PLANE_ANGLE_MEASURE(0.017453292500000),#18);
#24=(CONVERSION_BASED_UNIT('DEGREE',#20)NAMED_UNIT(#19)PLANE_ANGLE_UNIT());
#28=(NAMED_UNIT(*)SI_UNIT($,.STERADIAN.)SOLID_ANGLE_UNIT());
#32=(LENGTH_UNIT()NAMED_UNIT(*)SI_UNIT(.MILLI.,.METRE.));
#34=UNCERTAINTY_MEASURE_WITH_UNIT(LENGTH_MEASURE(0.010000000000000),#32,'DISTANCE_ACCURACY_VALUE','');
#36=(GEOMETRIC_REPRESENTATION_CONTEXT(3)GLOBAL_UNCERTAINTY_ASSIGNED_CONTEXT((#34))GLOBAL_UNIT_ASSIGNED_CONTEXT((#24,#28,#32))REPRESENTATION_CONTEXT('None','None'));
#37=AXIS2_PLACEMENT_3D('',#38,#39,#40);
#38=CARTESIAN_POINT('',(0.0,0.0,0.0));
#39=DIRECTION('',(0.0,0.0,1.0));
#40=DIRECTION('',(1.0,0.0,0.0));
#41=SHAPE_REPRESENTATION('',(#37),#36);
#42=PRODUCT_DEFINITION_SHAPE('','',#12);
#43=SHAPE_DEFINITION_REPRESENTATION(#42,#41);
#49=(NAMED_UNIT(*)PLANE_ANGLE_UNIT()SI_UNIT($,.RADIAN.));
#50=DIMENSIONAL_EXPONENTS(0.0,0.0,0.0,0.0,0.0,0.0,0.0);
#51=PLANE_ANGLE_MEASURE_WITH_UNIT(PLANE_ANGLE_MEASURE(0.017453292500000),#49);
#55=(CONVERSION_BASED_UNIT('DEGREE',#51)NAMED_UNIT(#50)PLANE_ANGLE_UNIT());
#59=(NAMED_UNIT(*)SI_UNIT($,.STERADIAN.)SOLID_ANGLE_UNIT());
#63=(LENGTH_UNIT()NAMED_UNIT(*)SI_UNIT(.MILLI.,.METRE.));
#65=UNCERTAINTY_MEASURE_WITH_UNIT(LENGTH_MEASURE(0.000001000000000),#63,'DISTANCE_ACCURACY_VALUE','');
#67=(GEOMETRIC_REPRESENTATION_CONTEXT(3)GLOBAL_UNCERTAINTY_ASSIGNED_CONTEXT((#65))GLOBAL_UNIT_ASSIGNED_CONTEXT((#55,#59,#63))REPRESENTATION_CONTEXT('','3D'));
#68=CARTESIAN_POINT('',(-6.250000000000007,0.0,0.0));
#69=DIRECTION('',(-1.0,0.0,0.0));
#70=DIRECTION('',(0.0,-1.0,0.0));
#71=AXIS2_PLACEMENT_3D('',#68,#69,#70);
#72=CONICAL_SURFACE('',#71,47.750000000000000,44.999999999999986);
#73=CARTESIAN_POINT('',(-7.500000000000008,49.0,6.000571E-015));
#74=VERTEX_POINT('',#73);
#75=CARTESIAN_POINT('',(-7.500000000000008,0.0,0.0));
#76=DIRECTION('',(1.0,0.0,0.0));
#77=DIRECTION('',(0.0,-1.0,0.0));
#78=AXIS2_PLACEMENT_3D('',#75,#76,#77);
#79=CIRCLE('',#78,49.0);
#80=EDGE_CURVE('',#74,#74,#79,.T.);
#81=ORIENTED_EDGE('',*,*,#80,.T.);
#82=EDGE_LOOP('',(#81));
#83=FACE_OUTER_BOUND('',#82,.T.);
#84=CARTESIAN_POINT('',(-5.000000000000007,46.500000000000000,-5.694420E-015));
#85=VERTEX_POINT('',#84);
#86=CARTESIAN_POINT('',(-5.000000000000007,0.0,0.0));
#87=DIRECTION('',(-1.0,0.0,0.0));
#88=DIRECTION('',(0.0,-1.0,0.0));
#89=AXIS2_PLACEMENT_3D('',#86,#87,#88);
#90=CIRCLE('',#89,46.500000000000000);
#91=EDGE_CURVE('',#85,#85,#90,.T.);
#92=ORIENTED_EDGE('',*,*,#91,.T.);
#93=EDGE_LOOP('',(#92));
#94=FACE_BOUND('',#93,.T.);
#95=ADVANCED_FACE('',(#83,#94),#72,.T.);
#96=CARTESIAN_POINT('',(-14.500000000000011,0.0,0.0));
#97=DIRECTION('',(1.0,0.0,0.0));
#98=DIRECTION('',(0.0,1.0,0.0));
#99=AXIS2_PLACEMENT_3D('',#96,#97,#98);
#100=CYLINDRICAL_SURFACE('',#99,49.0);
#101=CARTESIAN_POINT('',(-21.500000000000014,49.0,-6.000571E-015));
#102=VERTEX_POINT('',#101);
#103=CARTESIAN_POINT('',(-21.500000000000014,0.0,0.0));
#104=DIRECTION('',(-1.0,0.0,0.0));
#105=DIRECTION('',(0.0,-1.0,0.0));
#106=AXIS2_PLACEMENT_3D('',#103,#104,#105);
#107=CIRCLE('',#106,49.0);
#108=EDGE_CURVE('',#102,#102,#107,.T.);
#109=ORIENTED_EDGE('',*,*,#108,.F.);
#110=EDGE_LOOP('',(#109));
#111=FACE_OUTER_BOUND('',#110,.T.);
#112=ORIENTED_EDGE('',*,*,#80,.F.);
#113=EDGE_LOOP('',(#112));
#114=FACE_BOUND('',#113,.T.);
#115=ADVANCED_FACE('',(#111,#114),#100,.T.);
#116=CARTESIAN_POINT('',(-5.000000000000007,45.500000000000007,0.0));
#117=DIRECTION('',(1.0,0.0,0.0));
#118=DIRECTION('',(0.0,0.0,-1.0));
#119=AXIS2_PLACEMENT_3D('',#116,#117,#118);
#120=PLANE('',#119);
#121=ORIENTED_EDGE('',*,*,#91,.F.);
#122=EDGE_LOOP('',(#121));
#123=FACE_OUTER_BOUND('',#122,.T.);
#124=CARTESIAN_POINT('',(-5.000000000000007,42.0,0.0));
#125=VERTEX_POINT('',#124);
#126=CARTESIAN_POINT('',(-5.000000000000007,0.0,0.0));
#127=DIRECTION('',(1.0,0.0,0.0));
#128=DIRECTION('',(0.0,1.0,0.0));
#129=AXIS2_PLACEMENT_3D('',#126,#127,#128);
#130=CIRCLE('',#129,42.0);
#131=EDGE_CURVE('',#125,#125,#130,.T.);
#132=ORIENTED_EDGE('',*,*,#131,.F.);
#133=EDGE_LOOP('',(#132));
#134=FACE_BOUND('',#133,.T.);
#135=ADVANCED_FACE('',(#123,#134),#120,.T.);
#136=CARTESIAN_POINT('',(-22.750000000000014,0.0,0.0));
#137=DIRECTION('',(1.0,0.0,0.0));
#138=DIRECTION('',(0.0,-1.0,0.0));
#139=AXIS2_PLACEMENT_3D('',#136,#137,#138);
#140=CONICAL_SURFACE('',#139,47.750000000000000,45.000000000000099);
#141=CARTESIAN_POINT('',(-24.000000000000014,46.499999999999993,5.694420E-015));
#142=VERTEX_POINT('',#141);
#143=CARTESIAN_POINT('',(-24.000000000000014,0.0,0.0));
#144=DIRECTION('',(1.0,0.0,0.0));
#145=DIRECTION('',(0.0,-1.0,0.0));
#146=AXIS2_PLACEMENT_3D('',#143,#144,#145);
#147=CIRCLE('',#146,46.499999999999993);
#148=EDGE_CURVE('',#142,#142,#147,.T.);
#149=ORIENTED_EDGE('',*,*,#148,.T.);
#150=EDGE_LOOP('',(#149));
#151=FACE_OUTER_BOUND('',#150,.T.);
#152=ORIENTED_EDGE('',*,*,#108,.T.);
#153=EDGE_LOOP('',(#152));
#154=FACE_BOUND('',#153,.T.);
#155=ADVANCED_FACE('',(#151,#154),#140,.T.);
#156=CARTESIAN_POINT('',(-24.000000000000014,46.0,0.0));
#157=DIRECTION('',(-1.0,0.0,0.0));
#158=DIRECTION('',(0.0,0.0,1.0));
#159=AXIS2_PLACEMENT_3D('',#156,#157,#158);
#160=PLANE('',#159);
#161=ORIENTED_EDGE('',*,*,#148,.F.);
#162=EDGE_LOOP('',(#161));
#163=FACE_OUTER_BOUND('',#162,.T.);
#164=CARTESIAN_POINT('',(-24.000000000000014,42.999999999999986,0.0));
#165=VERTEX_POINT('',#164);
#166=CARTESIAN_POINT('',(-24.000000000000014,0.0,0.0));
#167=DIRECTION('',(1.0,0.0,0.0));
#168=DIRECTION('',(0.0,1.0,0.0));
#169=AXIS2_PLACEMENT_3D('',#166,#167,#168);
#170=CIRCLE('',#169,42.999999999999986);
#171=EDGE_CURVE('',#165,#165,#170,.T.);
#172=ORIENTED_EDGE('',*,*,#171,.T.);
#173=EDGE_LOOP('',(#172));
#174=FACE_BOUND('',#173,.T.);
#175=ADVANCED_FACE('',(#163,#174),#160,.T.);
#176=CARTESIAN_POINT('',(-12.000000000000009,0.0,0.0));
#177=DIRECTION('',(1.0,0.0,0.0));
#178=DIRECTION('',(0.0,1.0,0.0));
#179=AXIS2_PLACEMENT_3D('',#176,#177,#178);
#180=CYLINDRICAL_SURFACE('',#179,35.999999999999993);
#181=CARTESIAN_POINT('',(-24.000000000000014,35.999999999999986,0.0));
#182=VERTEX_POINT('',#181);
#183=CARTESIAN_POINT('',(-24.000000000000014,0.0,0.0));
#184=DIRECTION('',(1.0,0.0,0.0));
#185=DIRECTION('',(0.0,1.0,0.0));
#186=AXIS2_PLACEMENT_3D('',#183,#184,#185);
#187=CIRCLE('',#186,35.999999999999986);
#188=EDGE_CURVE('',#182,#182,#187,.T.);
#189=ORIENTED_EDGE('',*,*,#188,.F.);
#190=EDGE_LOOP('',(#189));
#191=FACE_OUTER_BOUND('',#190,.T.);
#192=CARTESIAN_POINT('',(-4.440892E-015,36.0,0.0));
#193=VERTEX_POINT('',#192);
#194=CARTESIAN_POINT('',(-4.440892E-015,0.0,0.0));
#195=DIRECTION('',(1.0,0.0,0.0));
#196=DIRECTION('',(0.0,1.0,0.0));
#197=AXIS2_PLACEMENT_3D('',#194,#195,#196);
#198=CIRCLE('',#197,36.0);
#199=EDGE_CURVE('',#193,#193,#198,.T.);
#200=ORIENTED_EDGE('',*,*,#199,.T.);
#201=EDGE_LOOP('',(#200));
#202=FACE_BOUND('',#201,.T.);
#203=ADVANCED_FACE('',(#191,#202),#180,.F.);
#204=CARTESIAN_POINT('',(-24.000000000000014,36.999999999999986,0.0));
#205=DIRECTION('',(-1.0,0.0,0.0));
#206=DIRECTION('',(0.0,0.0,1.0));
#207=AXIS2_PLACEMENT_3D('',#204,#205,#206);
#208=PLANE('',#207);
#209=CARTESIAN_POINT('',(-24.000000000000014,37.999999999999986,0.0));
#210=VERTEX_POINT('',#209);
#211=CARTESIAN_POINT('',(-24.000000000000014,0.0,0.0));
#212=DIRECTION('',(1.0,0.0,0.0));
#213=DIRECTION('',(0.0,1.0,0.0));
#214=AXIS2_PLACEMENT_3D('',#211,#212,#213);
#215=CIRCLE('',#214,37.999999999999986);
#216=EDGE_CURVE('',#210,#210,#215,.T.);
#217=ORIENTED_EDGE('',*,*,#216,.F.);
#218=EDGE_LOOP('',(#217));
#219=FACE_OUTER_BOUND('',#218,.T.);
#220=ORIENTED_EDGE('',*,*,#188,.T.);
#221=EDGE_LOOP('',(#220));
#222=FACE_BOUND('',#221,.T.);
#223=ADVANCED_FACE('',(#219,#222),#208,.T.);
#224=CARTESIAN_POINT('',(-22.500000000000014,0.0,0.0));
#225=DIRECTION('',(1.0,0.0,0.0));
#226=DIRECTION('',(0.0,1.0,0.0));
#227=AXIS2_PLACEMENT_3D('',#224,#225,#226);
#228=CYLINDRICAL_SURFACE('',#227,37.999999999999986);
#229=CARTESIAN_POINT('',(-21.000000000000014,37.999999999999986,0.0));
#230=VERTEX_POINT('',#229);
#231=CARTESIAN_POINT('',(-21.000000000000014,0.0,0.0));
#232=DIRECTION('',(1.0,0.0,0.0));
#233=DIRECTION('',(0.0,1.0,0.0));
#234=AXIS2_PLACEMENT_3D('',#231,#232,#233);
#235=CIRCLE('',#234,37.999999999999986);
#236=EDGE_CURVE('',#230,#230,#235,.T.);
#237=ORIENTED_EDGE('',*,*,#236,.F.);
#238=EDGE_LOOP('',(#237));
#239=FACE_OUTER_BOUND('',#238,.T.);
#240=ORIENTED_EDGE('',*,*,#216,.T.);
#241=EDGE_LOOP('',(#240));
#242=FACE_BOUND('',#241,.T.);
#243=ADVANCED_FACE('',(#239,#242),#228,.T.);
#244=CARTESIAN_POINT('',(-21.000000000000014,40.499999999999986,0.0));
#245=DIRECTION('',(-1.0,0.0,0.0));
#246=DIRECTION('',(0.0,0.0,1.0));
#247=AXIS2_PLACEMENT_3D('',#244,#245,#246);
#248=PLANE('',#247);
#249=CARTESIAN_POINT('',(-21.000000000000014,43.0,0.0));
#250=VERTEX_POINT('',#249);
#251=CARTESIAN_POINT('',(-21.000000000000014,0.0,0.0));
#252=DIRECTION('',(1.0,0.0,0.0));
#253=DIRECTION('',(0.0,1.0,0.0));
#254=AXIS2_PLACEMENT_3D('',#251,#252,#253);
#255=CIRCLE('',#254,43.0);
#256=EDGE_CURVE('',#250,#250,#255,.T.);
#257=ORIENTED_EDGE('',*,*,#256,.F.);
#258=EDGE_LOOP('',(#257));
#259=FACE_OUTER_BOUND('',#258,.T.);
#260=ORIENTED_EDGE('',*,*,#236,.T.);
#261=EDGE_LOOP('',(#260));
#262=FACE_BOUND('',#261,.T.);
#263=ADVANCED_FACE('',(#259,#262),#248,.T.);
#264=CARTESIAN_POINT('',(-22.500000000000014,0.0,0.0));
#265=DIRECTION('',(1.0,0.0,0.0));
#266=DIRECTION('',(0.0,1.0,0.0));
#267=AXIS2_PLACEMENT_3D('',#264,#265,#266);
#268=CYLINDRICAL_SURFACE('',#267,42.999999999999986);
#269=ORIENTED_EDGE('',*,*,#171,.F.);
#270=EDGE_LOOP('',(#269));
#271=FACE_OUTER_BOUND('',#270,.T.);
#272=ORIENTED_EDGE('',*,*,#256,.T.);
#273=EDGE_LOOP('',(#272));
#274=FACE_BOUND('',#273,.T.);
#275=ADVANCED_FACE('',(#271,#274),#268,.F.);
#276=CARTESIAN_POINT('',(-1.000000000000005,-4.653504E-015,38.0));
#277=CARTESIAN_POINT('',(-5.000000000000006,-4.653504E-015,38.0));
#278=CARTESIAN_POINT('',(-5.000000000000006,-5.143347E-015,42.0));
#279=CARTESIAN_POINT('',(-5.000000000000007,-5.633189E-015,46.0));
#280=CARTESIAN_POINT('',(-1.000000000000005,-5.633189E-015,46.0));
#281=CARTESIAN_POINT('',(-1.000000000000005,-38.0,37.999999999999986));
#282=CARTESIAN_POINT('',(-5.000000000000006,-38.0,37.999999999999986));
#283=CARTESIAN_POINT('',(-5.000000000000006,-42.0,41.999999999999986));
#284=CARTESIAN_POINT('',(-5.000000000000007,-46.0,45.999999999999986));
#285=CARTESIAN_POINT('',(-1.000000000000005,-46.0,45.999999999999986));
#286=CARTESIAN_POINT('',(-1.000000000000005,-38.0,-4.653504E-015));
#287=CARTESIAN_POINT('',(-5.000000000000006,-38.0,-4.653504E-015));
#288=CARTESIAN_POINT('',(-5.000000000000006,-42.0,-5.143347E-015));
#289=CARTESIAN_POINT('',(-5.000000000000007,-46.0,-5.633189E-015));
#290=CARTESIAN_POINT('',(-1.000000000000005,-46.0,-5.633189E-015));
#291=CARTESIAN_POINT('',(-1.000000000000005,-37.999999999999986,-38.0));
#292=CARTESIAN_POINT('',(-5.000000000000006,-37.999999999999986,-38.0));
#293=CARTESIAN_POINT('',(-5.000000000000006,-41.999999999999986,-42.0));
#294=CARTESIAN_POINT('',(-5.000000000000007,-45.999999999999986,-46.0));
#295=CARTESIAN_POINT('',(-1.000000000000005,-45.999999999999986,-46.0));
#296=CARTESIAN_POINT('',(-1.000000000000005,4.653504E-015,-38.0));
#297=CARTESIAN_POINT('',(-5.000000000000006,4.653504E-015,-38.0));
#298=CARTESIAN_POINT('',(-5.000000000000006,5.143347E-015,-42.0));
#299=CARTESIAN_POINT('',(-5.000000000000007,5.633189E-015,-46.0));
#300=CARTESIAN_POINT('',(-1.000000000000005,5.633189E-015,-46.0));
#301=CARTESIAN_POINT('',(-1.000000000000005,38.0,-37.999999999999986));
#302=CARTESIAN_POINT('',(-5.000000000000006,38.0,-37.999999999999986));
#303=CARTESIAN_POINT('',(-5.000000000000006,42.0,-41.999999999999986));
#304=CARTESIAN_POINT('',(-5.000000000000007,46.0,-45.999999999999986));
#305=CARTESIAN_POINT('',(-1.000000000000005,46.0,-45.999999999999986));
#306=CARTESIAN_POINT('',(-1.000000000000005,38.0,4.653504E-015));
#307=CARTESIAN_POINT('',(-5.000000000000006,38.0,4.653504E-015));
#308=CARTESIAN_POINT('',(-5.000000000000006,42.0,5.143347E-015));
#309=CARTESIAN_POINT('',(-5.000000000000007,46.0,5.633189E-015));
#310=CARTESIAN_POINT('',(-1.000000000000005,46.0,5.633189E-015));
#311=CARTESIAN_POINT('',(-1.000000000000005,37.999999999999986,38.0));
#312=CARTESIAN_POINT('',(-5.000000000000006,37.999999999999986,38.0));
#313=CARTESIAN_POINT('',(-5.000000000000006,41.999999999999986,42.0));
#314=CARTESIAN_POINT('',(-5.000000000000007,45.999999999999986,46.0));
#315=CARTESIAN_POINT('',(-1.000000000000005,45.999999999999986,46.0));
#316=CARTESIAN_POINT('',(-1.000000000000005,-4.653504E-015,38.0));
#317=CARTESIAN_POINT('',(-5.000000000000006,-4.653504E-015,38.0));
#318=CARTESIAN_POINT('',(-5.000000000000006,-5.143347E-015,42.0));
#319=CARTESIAN_POINT('',(-5.000000000000007,-5.633189E-015,46.0));
#320=CARTESIAN_POINT('',(-1.000000000000005,-5.633189E-015,46.0));
#328=(BOUNDED_SURFACE()B_SPLINE_SURFACE(2,2,((#276,#281,#286,#291,#296,#301,#306,#311,#316),(#277,#282,#287,#292,#297,#302,#307,#312,#317),(#278,#283,#288,#293,#298,#303,#308,#313,#318),(#279,#284,#289,#294,#299,#304,#309,#314,#319),(#280,#285,#290,#295,#300,#305,#310,#315,#320)),.UNSPECIFIED.,.F.,.T.,.U.)B_SPLINE_SURFACE_WITH_KNOTS((3,2,3),(3,2,2,2,3),(-3.141592653589794,-1.570796326794897,3.885781E-016),(0.0,1.570796326794897,3.141592653589793,4.712388980384690,6.283185307179586),.UNSPECIFIED.)GEOMETRIC_REPRESENTATION_ITEM()RATIONAL_B_SPLINE_SURFACE(((1.0,0.707106781186548,1.0,0.707106781186548,1.0,0.707106781186548,1.0,0.707106781186548,1.0),(0.707106781186549,0.500000000000001,0.707106781186549,0.500000000000001,0.707106781186549,0.500000000000001,0.707106781186549,0.500000000000001,0.707106781186549),(1.0,0.707106781186548,1.0,0.707106781186548,1.0,0.707106781186548,1.0,0.707106781186548,1.0),(0.707106781186548,0.500000000000001,0.707106781186548,0.500000000000001,0.707106781186548,0.500000000000001,0.707106781186548,0.500000000000001,0.707106781186548),(1.0,0.707106781186548,1.0,0.707106781186548,1.0,0.707106781186548,1.0,0.707106781186548,1.0)))REPRESENTATION_ITEM('')SURFACE());
#329=CARTESIAN_POINT('',(-1.000000000000005,38.0,0.0));
#330=VERTEX_POINT('',#329);
#331=CARTESIAN_POINT('',(-1.000000000000005,0.0,0.0));
#332=DIRECTION('',(1.0,0.0,0.0));
#333=DIRECTION('',(0.0,1.0,0.0));
#334=AXIS2_PLACEMENT_3D('',#331,#332,#333);
#335=CIRCLE('',#334,38.0);
#336=EDGE_CURVE('',#330,#330,#335,.T.);
#337=ORIENTED_EDGE('',*,*,#336,.F.);
#338=EDGE_LOOP('',(#337));
#339=FACE_OUTER_BOUND('',#338,.T.);
#340=ORIENTED_EDGE('',*,*,#131,.T.);
#341=EDGE_LOOP('',(#340));
#342=FACE_BOUND('',#341,.T.);
#343=ADVANCED_FACE('',(#339,#342),#328,.T.);
#344=CARTESIAN_POINT('',(-0.500000000000005,0.0,0.0));
#345=DIRECTION('',(1.0,0.0,0.0));
#346=DIRECTION('',(0.0,1.0,0.0));
#347=AXIS2_PLACEMENT_3D('',#344,#345,#346);
#348=CYLINDRICAL_SURFACE('',#347,38.0);
#349=CARTESIAN_POINT('',(-4.440892E-015,38.0,0.0));
#350=VERTEX_POINT('',#349);
#351=CARTESIAN_POINT('',(-4.440892E-015,0.0,0.0));
#352=DIRECTION('',(1.0,0.0,0.0));
#353=DIRECTION('',(0.0,1.0,0.0));
#354=AXIS2_PLACEMENT_3D('',#351,#352,#353);
#355=CIRCLE('',#354,38.0);
#356=EDGE_CURVE('',#350,#350,#355,.T.);
#357=ORIENTED_EDGE('',*,*,#356,.F.);
#358=EDGE_LOOP('',(#357));
#359=FACE_OUTER_BOUND('',#358,.T.);
#360=ORIENTED_EDGE('',*,*,#336,.T.);
#361=EDGE_LOOP('',(#360));
#362=FACE_BOUND('',#361,.T.);
#363=ADVANCED_FACE('',(#359,#362),#348,.T.);
#364=CARTESIAN_POINT('',(-4.440892E-015,37.0,0.0));
#365=DIRECTION('',(1.0,0.0,0.0));
#366=DIRECTION('',(0.0,0.0,-1.0));
#367=AXIS2_PLACEMENT_3D('',#364,#365,#366);
#368=PLANE('',#367);
#369=ORIENTED_EDGE('',*,*,#356,.T.);
#370=EDGE_LOOP('',(#369));
#371=FACE_OUTER_BOUND('',#370,.T.);
#372=ORIENTED_EDGE('',*,*,#199,.F.);
#373=EDGE_LOOP('',(#372));
#374=FACE_BOUND('',#373,.T.);
#375=ADVANCED_FACE('',(#371,#374),#368,.T.);
#376=CLOSED_SHELL('',(#95,#115,#135,#155,#175,#203,#223,#243,#263,#275,#343,#363,#375));
#377=MANIFOLD_SOLID_BREP('',#376);
#378=COLOUR_RGB('Metall - Stahl',0.639216005802155,0.639216005802155,0.686275005340576);
#379=FILL_AREA_STYLE_COLOUR('Metall - Stahl',#378);
#380=FILL_AREA_STYLE('Metall - Stahl',(#379));
#381=SURFACE_STYLE_FILL_AREA(#380);
#382=SURFACE_SIDE_STYLE('Metall - Stahl',(#381));
#383=SURFACE_STYLE_USAGE(.BOTH.,#382);
#384=PRESENTATION_STYLE_ASSIGNMENT((#383));
#385=STYLED_ITEM('',(#384),#377);
#386=MECHANICAL_DESIGN_GEOMETRIC_PRESENTATION_REPRESENTATION('',(#385),#36);
#387=ADVANCED_BREP_SHAPE_REPRESENTATION('ABSR',(#377),#36);
#388=SHAPE_REPRESENTATION_RELATIONSHIP('SRR','None',#387,#41);
ENDSEC;
END-ISO-10303-21;
