ISO-10303-21;
HEADER;
/****************************************************************
 * Generated by software with PDE/Lib inside                    *
 * PDElib Version v51a, created Thu 12/14/2006                  *
 * International Technegroup Inc. (www.iti-oh.com)              *
 ****************************************************************/
FILE_DESCRIPTION((''),'2;1');
FILE_NAME('T:\\Arbeitspl\S\dtze\\Aushilfe\\KPeters\\3D\\Steps 08_10\\16263\\16263100X.stp','2010-08-10T09:56:00',('thilbrands'),(''),'Autodesk Inventor 2008','Autodesk Inventor 2008','');
FILE_SCHEMA(('AUTOMOTIVE_DESIGN { 1 0 10303 214 1 1 1 1 }'));
ENDSEC;
DATA;
#5=APPLICATION_CONTEXT('automotive design');
#6=APPLICATION_PROTOCOL_DEFINITION('International Standard','automotive_design',2001,#5);
#7=PRODUCT_CONTEXT('',#5,'mechanical');
#8=PRODUCT('162631003','162631003',$,(#7));
#9=PRODUCT_RELATED_PRODUCT_CATEGORY('part',$,(#8));
#10=PRODUCT_DEFINITION_FORMATION('',$,#8);
#11=PRODUCT_DEFINITION_CONTEXT('part definition',#5,'design');
#12=PRODUCT_DEFINITION('',$,#10,#11);
#18=(NAMED_UNIT(*)PLANE_ANGLE_UNIT()SI_UNIT($,.RADIAN.));
#19=DIMENSIONAL_EXPONENTS(0.0,0.0,0.0,0.0,0.0,0.0,0.0);
#20=PLANE_ANGLE_MEASURE_WITH_UNIT(PLANE_ANGLE_MEASURE(0.017453292500000),#18);
#24=(CONVERSION_BASED_UNIT('DEGREE',#20)NAMED_UNIT(#19)PLANE_ANGLE_UNIT());
#28=(NAMED_UNIT(*)SI_UNIT($,.STERADIAN.)SOLID_ANGLE_UNIT());
#32=(LENGTH_UNIT()NAMED_UNIT(*)SI_UNIT(.MILLI.,.METRE.));
#34=UNCERTAINTY_MEASURE_WITH_UNIT(LENGTH_MEASURE(0.010000000000000),#32,'DISTANCE_ACCURACY_VALUE','');
#36=(GEOMETRIC_REPRESENTATION_CONTEXT(3)GLOBAL_UNCERTAINTY_ASSIGNED_CONTEXT((#34))GLOBAL_UNIT_ASSIGNED_CONTEXT((#24,#28,#32))REPRESENTATION_CONTEXT('None','None'));
#37=AXIS2_PLACEMENT_3D('',#38,#39,#40);
#38=CARTESIAN_POINT('',(0.0,0.0,0.0));
#39=DIRECTION('',(0.0,0.0,1.0));
#40=DIRECTION('',(1.0,0.0,0.0));
#41=SHAPE_REPRESENTATION('',(#37),#36);
#42=PRODUCT_DEFINITION_SHAPE('','',#12);
#43=SHAPE_DEFINITION_REPRESENTATION(#42,#41);
#49=(NAMED_UNIT(*)PLANE_ANGLE_UNIT()SI_UNIT($,.RADIAN.));
#50=DIMENSIONAL_EXPONENTS(0.0,0.0,0.0,0.0,0.0,0.0,0.0);
#51=PLANE_ANGLE_MEASURE_WITH_UNIT(PLANE_ANGLE_MEASURE(0.017453292500000),#49);
#55=(CONVERSION_BASED_UNIT('DEGREE',#51)NAMED_UNIT(#50)PLANE_ANGLE_UNIT());
#59=(NAMED_UNIT(*)SI_UNIT($,.STERADIAN.)SOLID_ANGLE_UNIT());
#63=(LENGTH_UNIT()NAMED_UNIT(*)SI_UNIT(.MILLI.,.METRE.));
#65=UNCERTAINTY_MEASURE_WITH_UNIT(LENGTH_MEASURE(0.000001000000000),#63,'DISTANCE_ACCURACY_VALUE','');
#67=(GEOMETRIC_REPRESENTATION_CONTEXT(3)GLOBAL_UNCERTAINTY_ASSIGNED_CONTEXT((#65))GLOBAL_UNIT_ASSIGNED_CONTEXT((#55,#59,#63))REPRESENTATION_CONTEXT('','3D'));
#68=CARTESIAN_POINT('',(-7.400961894323352,0.0,0.0));
#69=DIRECTION('',(-1.0,0.0,0.0));
#70=DIRECTION('',(0.0,-1.0,0.0));
#71=AXIS2_PLACEMENT_3D('',#68,#69,#70);
#72=CONICAL_SURFACE('',#71,22.0,74.999999999999957);
#73=CARTESIAN_POINT('',(-7.601923788646695,22.750000000000004,2.785979E-015));
#74=VERTEX_POINT('',#73);
#75=CARTESIAN_POINT('',(-7.601923788646695,0.0,0.0));
#76=DIRECTION('',(1.0,0.0,0.0));
#77=DIRECTION('',(0.0,-1.0,0.0));
#78=AXIS2_PLACEMENT_3D('',#75,#76,#77);
#79=CIRCLE('',#78,22.750000000000004);
#80=EDGE_CURVE('',#74,#74,#79,.T.);
#81=ORIENTED_EDGE('',*,*,#80,.T.);
#82=EDGE_LOOP('',(#81));
#83=FACE_OUTER_BOUND('',#82,.T.);
#84=CARTESIAN_POINT('',(-7.200000000000011,21.250000000000004,-2.602289E-015));
#85=VERTEX_POINT('',#84);
#86=CARTESIAN_POINT('',(-7.200000000000011,0.0,0.0));
#87=DIRECTION('',(-1.0,0.0,0.0));
#88=DIRECTION('',(0.0,-1.0,0.0));
#89=AXIS2_PLACEMENT_3D('',#86,#87,#88);
#90=CIRCLE('',#89,21.250000000000004);
#91=EDGE_CURVE('',#85,#85,#90,.T.);
#92=ORIENTED_EDGE('',*,*,#91,.T.);
#93=EDGE_LOOP('',(#92));
#94=FACE_BOUND('',#93,.T.);
#95=ADVANCED_FACE('',(#83,#94),#72,.T.);
#96=CARTESIAN_POINT('',(-14.350000000000012,0.0,0.0));
#97=DIRECTION('',(1.0,0.0,0.0));
#98=DIRECTION('',(0.0,1.0,0.0));
#99=AXIS2_PLACEMENT_3D('',#96,#97,#98);
#100=CYLINDRICAL_SURFACE('',#99,22.750000000000004);
#101=CARTESIAN_POINT('',(-21.098076211353330,22.750000000000004,-2.785979E-015));
#102=VERTEX_POINT('',#101);
#103=CARTESIAN_POINT('',(-21.098076211353330,0.0,0.0));
#104=DIRECTION('',(-1.0,0.0,0.0));
#105=DIRECTION('',(0.0,-1.0,0.0));
#106=AXIS2_PLACEMENT_3D('',#103,#104,#105);
#107=CIRCLE('',#106,22.750000000000004);
#108=EDGE_CURVE('',#102,#102,#107,.T.);
#109=ORIENTED_EDGE('',*,*,#108,.F.);
#110=EDGE_LOOP('',(#109));
#111=FACE_OUTER_BOUND('',#110,.T.);
#112=ORIENTED_EDGE('',*,*,#80,.F.);
#113=EDGE_LOOP('',(#112));
#114=FACE_BOUND('',#113,.T.);
#115=ADVANCED_FACE('',(#111,#114),#100,.T.);
#116=CARTESIAN_POINT('',(-7.200000000000011,20.187500000000000,0.0));
#117=DIRECTION('',(1.0,0.0,0.0));
#118=DIRECTION('',(0.0,0.0,-1.0));
#119=AXIS2_PLACEMENT_3D('',#116,#117,#118);
#120=PLANE('',#119);
#121=ORIENTED_EDGE('',*,*,#91,.F.);
#122=EDGE_LOOP('',(#121));
#123=FACE_OUTER_BOUND('',#122,.T.);
#124=CARTESIAN_POINT('',(-7.200000000000012,17.624999999999996,0.0));
#125=VERTEX_POINT('',#124);
#126=CARTESIAN_POINT('',(-7.200000000000012,0.0,0.0));
#127=DIRECTION('',(1.0,0.0,0.0));
#128=DIRECTION('',(0.0,1.0,0.0));
#129=AXIS2_PLACEMENT_3D('',#126,#127,#128);
#130=CIRCLE('',#129,17.624999999999996);
#131=EDGE_CURVE('',#125,#125,#130,.T.);
#132=ORIENTED_EDGE('',*,*,#131,.F.);
#133=EDGE_LOOP('',(#132));
#134=FACE_BOUND('',#133,.T.);
#135=ADVANCED_FACE('',(#123,#134),#120,.T.);
#136=CARTESIAN_POINT('',(-21.299038105676669,0.0,0.0));
#137=DIRECTION('',(1.0,0.0,0.0));
#138=DIRECTION('',(0.0,-1.0,0.0));
#139=AXIS2_PLACEMENT_3D('',#136,#137,#138);
#140=CONICAL_SURFACE('',#139,22.0,75.000000000000057);
#141=CARTESIAN_POINT('',(-21.500000000000014,21.250000000000000,2.602289E-015));
#142=VERTEX_POINT('',#141);
#143=CARTESIAN_POINT('',(-21.500000000000014,0.0,0.0));
#144=DIRECTION('',(1.0,0.0,0.0));
#145=DIRECTION('',(0.0,-1.0,0.0));
#146=AXIS2_PLACEMENT_3D('',#143,#144,#145);
#147=CIRCLE('',#146,21.250000000000000);
#148=EDGE_CURVE('',#142,#142,#147,.T.);
#149=ORIENTED_EDGE('',*,*,#148,.T.);
#150=EDGE_LOOP('',(#149));
#151=FACE_OUTER_BOUND('',#150,.T.);
#152=ORIENTED_EDGE('',*,*,#108,.T.);
#153=EDGE_LOOP('',(#152));
#154=FACE_BOUND('',#153,.T.);
#155=ADVANCED_FACE('',(#151,#154),#140,.T.);
#156=CARTESIAN_POINT('',(-21.500000000000014,21.299999999999997,0.0));
#157=DIRECTION('',(-1.0,0.0,0.0));
#158=DIRECTION('',(0.0,0.0,1.0));
#159=AXIS2_PLACEMENT_3D('',#156,#157,#158);
#160=PLANE('',#159);
#161=ORIENTED_EDGE('',*,*,#148,.F.);
#162=EDGE_LOOP('',(#161));
#163=FACE_OUTER_BOUND('',#162,.T.);
#164=CARTESIAN_POINT('',(-21.500000000000014,19.849999999999998,0.0));
#165=VERTEX_POINT('',#164);
#166=CARTESIAN_POINT('',(-21.500000000000014,0.0,0.0));
#167=DIRECTION('',(1.0,0.0,0.0));
#168=DIRECTION('',(0.0,1.0,0.0));
#169=AXIS2_PLACEMENT_3D('',#166,#167,#168);
#170=CIRCLE('',#169,19.849999999999998);
#171=EDGE_CURVE('',#165,#165,#170,.T.);
#172=ORIENTED_EDGE('',*,*,#171,.T.);
#173=EDGE_LOOP('',(#172));
#174=FACE_BOUND('',#173,.T.);
#175=ADVANCED_FACE('',(#163,#174),#160,.T.);
#176=CARTESIAN_POINT('',(-13.150000000000002,0.0,0.0));
#177=DIRECTION('',(1.0,0.0,0.0));
#178=DIRECTION('',(0.0,1.0,0.0));
#179=AXIS2_PLACEMENT_3D('',#176,#177,#178);
#180=CYLINDRICAL_SURFACE('',#179,11.099999999999996);
#181=CARTESIAN_POINT('',(-26.300000000000004,11.099999999999991,0.0));
#182=VERTEX_POINT('',#181);
#183=CARTESIAN_POINT('',(-26.300000000000004,0.0,0.0));
#184=DIRECTION('',(1.0,0.0,0.0));
#185=DIRECTION('',(0.0,1.0,0.0));
#186=AXIS2_PLACEMENT_3D('',#183,#184,#185);
#187=CIRCLE('',#186,11.099999999999991);
#188=EDGE_CURVE('',#182,#182,#187,.T.);
#189=ORIENTED_EDGE('',*,*,#188,.F.);
#190=EDGE_LOOP('',(#189));
#191=FACE_OUTER_BOUND('',#190,.T.);
#192=CARTESIAN_POINT('',(0.0,11.100000000000003,0.0));
#193=VERTEX_POINT('',#192);
#194=CARTESIAN_POINT('',(0.0,0.0,0.0));
#195=DIRECTION('',(1.0,0.0,0.0));
#196=DIRECTION('',(0.0,1.0,0.0));
#197=AXIS2_PLACEMENT_3D('',#194,#195,#196);
#198=CIRCLE('',#197,11.100000000000003);
#199=EDGE_CURVE('',#193,#193,#198,.T.);
#200=ORIENTED_EDGE('',*,*,#199,.T.);
#201=EDGE_LOOP('',(#200));
#202=FACE_BOUND('',#201,.T.);
#203=ADVANCED_FACE('',(#191,#202),#180,.F.);
#204=CARTESIAN_POINT('',(-26.300000000000004,11.218663143425502,0.0));
#205=DIRECTION('',(-1.0,0.0,0.0));
#206=DIRECTION('',(0.0,0.0,1.0));
#207=AXIS2_PLACEMENT_3D('',#204,#205,#206);
#208=PLANE('',#207);
#209=CARTESIAN_POINT('',(-26.300000000000004,11.337326286851015,0.0));
#210=VERTEX_POINT('',#209);
#211=CARTESIAN_POINT('',(-26.300000000000004,0.0,0.0));
#212=DIRECTION('',(1.0,0.0,0.0));
#213=DIRECTION('',(0.0,1.0,0.0));
#214=AXIS2_PLACEMENT_3D('',#211,#212,#213);
#215=CIRCLE('',#214,11.337326286851015);
#216=EDGE_CURVE('',#210,#210,#215,.T.);
#217=ORIENTED_EDGE('',*,*,#216,.F.);
#218=EDGE_LOOP('',(#217));
#219=FACE_OUTER_BOUND('',#218,.T.);
#220=ORIENTED_EDGE('',*,*,#188,.T.);
#221=EDGE_LOOP('',(#220));
#222=FACE_BOUND('',#221,.T.);
#223=ADVANCED_FACE('',(#219,#222),#208,.T.);
#224=CARTESIAN_POINT('',(-24.700000000000003,0.0,0.0));
#225=DIRECTION('',(1.0,0.0,0.0));
#226=DIRECTION('',(0.0,0.0,-1.0));
#227=AXIS2_PLACEMENT_3D('',#224,#225,#226);
#228=TOROIDAL_SURFACE('',#227,11.337326286851015,1.600000000000006);
#229=CARTESIAN_POINT('',(-24.954703014778467,12.916923189311502,0.0));
#230=VERTEX_POINT('',#229);
#231=CARTESIAN_POINT('',(-24.954703014778467,0.0,0.0));
#232=DIRECTION('',(1.0,0.0,0.0));
#233=DIRECTION('',(0.0,1.0,0.0));
#234=AXIS2_PLACEMENT_3D('',#231,#232,#233);
#235=CIRCLE('',#234,12.916923189311502);
#236=EDGE_CURVE('',#230,#230,#235,.T.);
#237=ORIENTED_EDGE('',*,*,#236,.F.);
#238=EDGE_LOOP('',(#237));
#239=FACE_OUTER_BOUND('',#238,.T.);
#240=ORIENTED_EDGE('',*,*,#216,.T.);
#241=EDGE_LOOP('',(#240));
#242=FACE_BOUND('',#241,.T.);
#243=ADVANCED_FACE('',(#239,#242),#228,.T.);
#244=CARTESIAN_POINT('',(-23.227351507389237,0.0,0.0));
#245=DIRECTION('',(1.0,0.0,0.0));
#246=DIRECTION('',(0.0,1.0,0.0));
#247=AXIS2_PLACEMENT_3D('',#244,#245,#246);
#248=CONICAL_SURFACE('',#247,13.195450980692232,9.159848327365227);
#249=CARTESIAN_POINT('',(-21.500000000000007,13.473978772072961,0.0));
#250=VERTEX_POINT('',#249);
#251=CARTESIAN_POINT('',(-21.500000000000007,0.0,0.0));
#252=DIRECTION('',(1.0,0.0,0.0));
#253=DIRECTION('',(0.0,1.0,0.0));
#254=AXIS2_PLACEMENT_3D('',#251,#252,#253);
#255=CIRCLE('',#254,13.473978772072961);
#256=EDGE_CURVE('',#250,#250,#255,.T.);
#257=ORIENTED_EDGE('',*,*,#256,.F.);
#258=EDGE_LOOP('',(#257));
#259=FACE_OUTER_BOUND('',#258,.T.);
#260=ORIENTED_EDGE('',*,*,#236,.T.);
#261=EDGE_LOOP('',(#260));
#262=FACE_BOUND('',#261,.T.);
#263=ADVANCED_FACE('',(#259,#262),#248,.T.);
#264=CARTESIAN_POINT('',(-21.505505478988862,0.0,0.0));
#265=DIRECTION('',(1.0,0.0,0.0));
#266=DIRECTION('',(0.0,1.0,0.0));
#267=AXIS2_PLACEMENT_3D('',#264,#265,#266);
#268=CONICAL_SURFACE('',#267,13.461989386036478,65.335598548443457);
#269=CARTESIAN_POINT('',(-21.511010957977717,13.449999999999998,0.0));
#270=VERTEX_POINT('',#269);
#271=CARTESIAN_POINT('',(-21.511010957977717,0.0,0.0));
#272=DIRECTION('',(1.0,0.0,0.0));
#273=DIRECTION('',(0.0,1.0,0.0));
#274=AXIS2_PLACEMENT_3D('',#271,#272,#273);
#275=CIRCLE('',#274,13.449999999999998);
#276=EDGE_CURVE('',#270,#270,#275,.T.);
#277=ORIENTED_EDGE('',*,*,#276,.F.);
#278=EDGE_LOOP('',(#277));
#279=FACE_OUTER_BOUND('',#278,.T.);
#280=ORIENTED_EDGE('',*,*,#256,.T.);
#281=EDGE_LOOP('',(#280));
#282=FACE_BOUND('',#281,.T.);
#283=ADVANCED_FACE('',(#279,#282),#268,.F.);
#284=CARTESIAN_POINT('',(-20.705505478988862,0.0,0.0));
#285=DIRECTION('',(1.0,0.0,0.0));
#286=DIRECTION('',(0.0,1.0,0.0));
#287=AXIS2_PLACEMENT_3D('',#284,#285,#286);
#288=CYLINDRICAL_SURFACE('',#287,13.449999999999998);
#289=CARTESIAN_POINT('',(-19.900000000000009,13.449999999999998,0.0));
#290=VERTEX_POINT('',#289);
#291=CARTESIAN_POINT('',(-19.900000000000009,0.0,0.0));
#292=DIRECTION('',(1.0,0.0,0.0));
#293=DIRECTION('',(0.0,1.0,0.0));
#294=AXIS2_PLACEMENT_3D('',#291,#292,#293);
#295=CIRCLE('',#294,13.449999999999998);
#296=EDGE_CURVE('',#290,#290,#295,.T.);
#297=ORIENTED_EDGE('',*,*,#296,.F.);
#298=EDGE_LOOP('',(#297));
#299=FACE_OUTER_BOUND('',#298,.T.);
#300=ORIENTED_EDGE('',*,*,#276,.T.);
#301=EDGE_LOOP('',(#300));
#302=FACE_BOUND('',#301,.T.);
#303=ADVANCED_FACE('',(#299,#302),#288,.T.);
#304=CARTESIAN_POINT('',(-19.900000000000013,-2.430844E-015,19.849999999999994));
#305=CARTESIAN_POINT('',(-16.700000000000014,-2.430844E-015,19.849999999999994));
#306=CARTESIAN_POINT('',(-16.700000000000014,-2.038970E-015,16.649999999999995));
#307=CARTESIAN_POINT('',(-16.700000000000014,-1.647096E-015,13.449999999999996));
#308=CARTESIAN_POINT('',(-19.900000000000013,-1.647096E-015,13.449999999999996));
#309=CARTESIAN_POINT('',(-19.900000000000013,-19.849999999999994,19.849999999999987));
#310=CARTESIAN_POINT('',(-16.700000000000014,-19.849999999999994,19.849999999999987));
#311=CARTESIAN_POINT('',(-16.700000000000014,-16.649999999999995,16.649999999999988));
#312=CARTESIAN_POINT('',(-16.700000000000014,-13.449999999999994,13.449999999999990));
#313=CARTESIAN_POINT('',(-19.900000000000013,-13.449999999999996,13.449999999999990));
#314=CARTESIAN_POINT('',(-19.900000000000013,-19.849999999999994,-2.430844E-015));
#315=CARTESIAN_POINT('',(-16.700000000000014,-19.849999999999994,-2.430844E-015));
#316=CARTESIAN_POINT('',(-16.700000000000014,-16.649999999999995,-2.038970E-015));
#317=CARTESIAN_POINT('',(-16.700000000000014,-13.449999999999996,-1.647096E-015));
#318=CARTESIAN_POINT('',(-19.900000000000013,-13.449999999999996,-1.647096E-015));
#319=CARTESIAN_POINT('',(-19.900000000000013,-19.849999999999987,-19.849999999999994));
#320=CARTESIAN_POINT('',(-16.700000000000014,-19.849999999999987,-19.849999999999994));
#321=CARTESIAN_POINT('',(-16.700000000000014,-16.649999999999988,-16.649999999999995));
#322=CARTESIAN_POINT('',(-16.700000000000014,-13.449999999999990,-13.449999999999994));
#323=CARTESIAN_POINT('',(-19.900000000000013,-13.449999999999990,-13.449999999999996));
#324=CARTESIAN_POINT('',(-19.900000000000013,2.430844E-015,-19.849999999999994));
#325=CARTESIAN_POINT('',(-16.700000000000014,2.430844E-015,-19.849999999999994));
#326=CARTESIAN_POINT('',(-16.700000000000014,2.038970E-015,-16.649999999999995));
#327=CARTESIAN_POINT('',(-16.700000000000014,1.647096E-015,-13.449999999999996));
#328=CARTESIAN_POINT('',(-19.900000000000013,1.647096E-015,-13.449999999999996));
#329=CARTESIAN_POINT('',(-19.900000000000013,19.849999999999994,-19.849999999999987));
#330=CARTESIAN_POINT('',(-16.700000000000014,19.849999999999994,-19.849999999999987));
#331=CARTESIAN_POINT('',(-16.700000000000014,16.649999999999995,-16.649999999999988));
#332=CARTESIAN_POINT('',(-16.700000000000014,13.449999999999994,-13.449999999999990));
#333=CARTESIAN_POINT('',(-19.900000000000013,13.449999999999996,-13.449999999999990));
#334=CARTESIAN_POINT('',(-19.900000000000013,19.849999999999994,2.430844E-015));
#335=CARTESIAN_POINT('',(-16.700000000000014,19.849999999999994,2.430844E-015));
#336=CARTESIAN_POINT('',(-16.700000000000014,16.649999999999995,2.038970E-015));
#337=CARTESIAN_POINT('',(-16.700000000000014,13.449999999999996,1.647096E-015));
#338=CARTESIAN_POINT('',(-19.900000000000013,13.449999999999996,1.647096E-015));
#339=CARTESIAN_POINT('',(-19.900000000000013,19.849999999999987,19.849999999999994));
#340=CARTESIAN_POINT('',(-16.700000000000014,19.849999999999987,19.849999999999994));
#341=CARTESIAN_POINT('',(-16.700000000000014,16.649999999999988,16.649999999999995));
#342=CARTESIAN_POINT('',(-16.700000000000014,13.449999999999990,13.449999999999994));
#343=CARTESIAN_POINT('',(-19.900000000000013,13.449999999999990,13.449999999999996));
#344=CARTESIAN_POINT('',(-19.900000000000013,-2.430844E-015,19.849999999999994));
#345=CARTESIAN_POINT('',(-16.700000000000014,-2.430844E-015,19.849999999999994));
#346=CARTESIAN_POINT('',(-16.700000000000014,-2.038970E-015,16.649999999999995));
#347=CARTESIAN_POINT('',(-16.700000000000014,-1.647096E-015,13.449999999999996));
#348=CARTESIAN_POINT('',(-19.900000000000013,-1.647096E-015,13.449999999999996));
#356=(BOUNDED_SURFACE()B_SPLINE_SURFACE(2,2,((#304,#309,#314,#319,#324,#329,#334,#339,#344),(#305,#310,#315,#320,#325,#330,#335,#340,#345),(#306,#311,#316,#321,#326,#331,#336,#341,#346),(#307,#312,#317,#322,#327,#332,#337,#342,#347),(#308,#313,#318,#323,#328,#333,#338,#343,#348)),.UNSPECIFIED.,.F.,.T.,.U.)B_SPLINE_SURFACE_WITH_KNOTS((3,2,3),(3,2,2,2,3),(0.0,1.570796326794897,3.141592653589793),(0.0,1.570796326794897,3.141592653589793,4.712388980384690,6.283185307179586),.UNSPECIFIED.)GEOMETRIC_REPRESENTATION_ITEM()RATIONAL_B_SPLINE_SURFACE(((1.0,0.707106781186548,1.0,0.707106781186548,1.0,0.707106781186548,1.0,0.707106781186548,1.0),(0.707106781186547,0.500000000000000,0.707106781186547,0.500000000000000,0.707106781186547,0.500000000000000,0.707106781186547,0.500000000000000,0.707106781186547),(1.0,0.707106781186548,1.0,0.707106781186548,1.0,0.707106781186548,1.0,0.707106781186548,1.0),(0.707106781186547,0.500000000000000,0.707106781186547,0.500000000000000,0.707106781186547,0.500000000000000,0.707106781186547,0.500000000000000,0.707106781186547),(1.0,0.707106781186548,1.0,0.707106781186548,1.0,0.707106781186548,1.0,0.707106781186548,1.0)))REPRESENTATION_ITEM('')SURFACE());
#357=CARTESIAN_POINT('',(-19.900000000000013,19.849999999999998,0.0));
#358=VERTEX_POINT('',#357);
#359=CARTESIAN_POINT('',(-19.900000000000013,0.0,0.0));
#360=DIRECTION('',(1.0,0.0,0.0));
#361=DIRECTION('',(0.0,1.0,0.0));
#362=AXIS2_PLACEMENT_3D('',#359,#360,#361);
#363=CIRCLE('',#362,19.849999999999998);
#364=EDGE_CURVE('',#358,#358,#363,.T.);
#365=ORIENTED_EDGE('',*,*,#364,.F.);
#366=EDGE_LOOP('',(#365));
#367=FACE_OUTER_BOUND('',#366,.T.);
#368=ORIENTED_EDGE('',*,*,#296,.T.);
#369=EDGE_LOOP('',(#368));
#370=FACE_BOUND('',#369,.T.);
#371=ADVANCED_FACE('',(#367,#370),#356,.T.);
#372=CARTESIAN_POINT('',(-20.700000000000010,0.0,0.0));
#373=DIRECTION('',(1.0,0.0,0.0));
#374=DIRECTION('',(0.0,1.0,0.0));
#375=AXIS2_PLACEMENT_3D('',#372,#373,#374);
#376=CYLINDRICAL_SURFACE('',#375,19.849999999999998);
#377=ORIENTED_EDGE('',*,*,#171,.F.);
#378=EDGE_LOOP('',(#377));
#379=FACE_OUTER_BOUND('',#378,.T.);
#380=ORIENTED_EDGE('',*,*,#364,.T.);
#381=EDGE_LOOP('',(#380));
#382=FACE_BOUND('',#381,.T.);
#383=ADVANCED_FACE('',(#379,#382),#376,.F.);
#384=CARTESIAN_POINT('',(-2.400000000000009,-1.570558E-015,12.824999999999996));
#385=CARTESIAN_POINT('',(-7.200000000000012,-1.570558E-015,12.824999999999994));
#386=CARTESIAN_POINT('',(-7.200000000000011,-2.158369E-015,17.624999999999996));
#387=CARTESIAN_POINT('',(-7.200000000000012,-2.746180E-015,22.424999999999997));
#388=CARTESIAN_POINT('',(-2.400000000000008,-2.746180E-015,22.424999999999997));
#389=CARTESIAN_POINT('',(-2.400000000000009,-12.824999999999996,12.824999999999990));
#390=CARTESIAN_POINT('',(-7.200000000000012,-12.824999999999992,12.824999999999989));
#391=CARTESIAN_POINT('',(-7.200000000000011,-17.624999999999996,17.624999999999989));
#392=CARTESIAN_POINT('',(-7.200000000000011,-22.424999999999997,22.424999999999990));
#393=CARTESIAN_POINT('',(-2.400000000000008,-22.424999999999997,22.424999999999990));
#394=CARTESIAN_POINT('',(-2.400000000000009,-12.824999999999996,-1.570558E-015));
#395=CARTESIAN_POINT('',(-7.200000000000012,-12.824999999999994,-1.570558E-015));
#396=CARTESIAN_POINT('',(-7.200000000000011,-17.624999999999996,-2.158369E-015));
#397=CARTESIAN_POINT('',(-7.200000000000012,-22.424999999999997,-2.746180E-015));
#398=CARTESIAN_POINT('',(-2.400000000000008,-22.424999999999997,-2.746180E-015));
#399=CARTESIAN_POINT('',(-2.400000000000009,-12.824999999999990,-12.824999999999996));
#400=CARTESIAN_POINT('',(-7.200000000000012,-12.824999999999989,-12.824999999999992));
#401=CARTESIAN_POINT('',(-7.200000000000011,-17.624999999999989,-17.624999999999996));
#402=CARTESIAN_POINT('',(-7.200000000000011,-22.424999999999990,-22.424999999999997));
#403=CARTESIAN_POINT('',(-2.400000000000008,-22.424999999999990,-22.424999999999997));
#404=CARTESIAN_POINT('',(-2.400000000000009,1.570558E-015,-12.824999999999996));
#405=CARTESIAN_POINT('',(-7.200000000000012,1.570558E-015,-12.824999999999994));
#406=CARTESIAN_POINT('',(-7.200000000000011,2.158369E-015,-17.624999999999996));
#407=CARTESIAN_POINT('',(-7.200000000000012,2.746180E-015,-22.424999999999997));
#408=CARTESIAN_POINT('',(-2.400000000000008,2.746180E-015,-22.424999999999997));
#409=CARTESIAN_POINT('',(-2.400000000000009,12.824999999999996,-12.824999999999990));
#410=CARTESIAN_POINT('',(-7.200000000000012,12.824999999999992,-12.824999999999989));
#411=CARTESIAN_POINT('',(-7.200000000000011,17.624999999999996,-17.624999999999989));
#412=CARTESIAN_POINT('',(-7.200000000000011,22.424999999999997,-22.424999999999990));
#413=CARTESIAN_POINT('',(-2.400000000000008,22.424999999999997,-22.424999999999990));
#414=CARTESIAN_POINT('',(-2.400000000000009,12.824999999999996,1.570558E-015));
#415=CARTESIAN_POINT('',(-7.200000000000012,12.824999999999994,1.570558E-015));
#416=CARTESIAN_POINT('',(-7.200000000000011,17.624999999999996,2.158369E-015));
#417=CARTESIAN_POINT('',(-7.200000000000012,22.424999999999997,2.746180E-015));
#418=CARTESIAN_POINT('',(-2.400000000000008,22.424999999999997,2.746180E-015));
#419=CARTESIAN_POINT('',(-2.400000000000009,12.824999999999990,12.824999999999996));
#420=CARTESIAN_POINT('',(-7.200000000000012,12.824999999999989,12.824999999999992));
#421=CARTESIAN_POINT('',(-7.200000000000011,17.624999999999989,17.624999999999996));
#422=CARTESIAN_POINT('',(-7.200000000000011,22.424999999999990,22.424999999999997));
#423=CARTESIAN_POINT('',(-2.400000000000008,22.424999999999990,22.424999999999997));
#424=CARTESIAN_POINT('',(-2.400000000000009,-1.570558E-015,12.824999999999996));
#425=CARTESIAN_POINT('',(-7.200000000000012,-1.570558E-015,12.824999999999994));
#426=CARTESIAN_POINT('',(-7.200000000000011,-2.158369E-015,17.624999999999996));
#427=CARTESIAN_POINT('',(-7.200000000000012,-2.746180E-015,22.424999999999997));
#428=CARTESIAN_POINT('',(-2.400000000000008,-2.746180E-015,22.424999999999997));
#436=(BOUNDED_SURFACE()B_SPLINE_SURFACE(2,2,((#384,#389,#394,#399,#404,#409,#414,#419,#424),(#385,#390,#395,#400,#405,#410,#415,#420,#425),(#386,#391,#396,#401,#406,#411,#416,#421,#426),(#387,#392,#397,#402,#407,#412,#417,#422,#427),(#388,#393,#398,#403,#408,#413,#418,#423,#428)),.UNSPECIFIED.,.F.,.T.,.U.)B_SPLINE_SURFACE_WITH_KNOTS((3,2,3),(3,2,2,2,3),(-3.141592653589794,-1.570796326794897,3.700743E-016),(0.0,1.570796326794897,3.141592653589793,4.712388980384690,6.283185307179586),.UNSPECIFIED.)GEOMETRIC_REPRESENTATION_ITEM()RATIONAL_B_SPLINE_SURFACE(((1.0,0.707106781186548,1.0,0.707106781186548,1.0,0.707106781186548,1.0,0.707106781186548,1.0),(0.707106781186547,0.500000000000000,0.707106781186547,0.500000000000000,0.707106781186547,0.500000000000000,0.707106781186547,0.500000000000000,0.707106781186547),(1.0,0.707106781186548,1.0,0.707106781186548,1.0,0.707106781186548,1.0,0.707106781186548,1.0),(0.707106781186547,0.500000000000000,0.707106781186547,0.500000000000000,0.707106781186547,0.500000000000000,0.707106781186547,0.500000000000000,0.707106781186547),(1.0,0.707106781186548,1.0,0.707106781186548,1.0,0.707106781186548,1.0,0.707106781186548,1.0)))REPRESENTATION_ITEM('')SURFACE());
#437=CARTESIAN_POINT('',(-2.400000000000008,12.824999999999998,0.0));
#438=VERTEX_POINT('',#437);
#439=CARTESIAN_POINT('',(-2.400000000000008,0.0,0.0));
#440=DIRECTION('',(1.0,0.0,0.0));
#441=DIRECTION('',(0.0,1.0,0.0));
#442=AXIS2_PLACEMENT_3D('',#439,#440,#441);
#443=CIRCLE('',#442,12.824999999999998);
#444=EDGE_CURVE('',#438,#438,#443,.T.);
#445=ORIENTED_EDGE('',*,*,#444,.F.);
#446=EDGE_LOOP('',(#445));
#447=FACE_OUTER_BOUND('',#446,.T.);
#448=ORIENTED_EDGE('',*,*,#131,.T.);
#449=EDGE_LOOP('',(#448));
#450=FACE_BOUND('',#449,.T.);
#451=ADVANCED_FACE('',(#447,#450),#436,.T.);
#452=CARTESIAN_POINT('',(-1.200000000000004,0.0,0.0));
#453=DIRECTION('',(1.0,0.0,0.0));
#454=DIRECTION('',(0.0,1.0,0.0));
#455=AXIS2_PLACEMENT_3D('',#452,#453,#454);
#456=CYLINDRICAL_SURFACE('',#455,12.824999999999998);
#457=CARTESIAN_POINT('',(0.0,12.824999999999998,0.0));
#458=VERTEX_POINT('',#457);
#459=CARTESIAN_POINT('',(0.0,0.0,0.0));
#460=DIRECTION('',(1.0,0.0,0.0));
#461=DIRECTION('',(0.0,1.0,0.0));
#462=AXIS2_PLACEMENT_3D('',#459,#460,#461);
#463=CIRCLE('',#462,12.824999999999998);
#464=EDGE_CURVE('',#458,#458,#463,.T.);
#465=ORIENTED_EDGE('',*,*,#464,.F.);
#466=EDGE_LOOP('',(#465));
#467=FACE_OUTER_BOUND('',#466,.T.);
#468=ORIENTED_EDGE('',*,*,#444,.T.);
#469=EDGE_LOOP('',(#468));
#470=FACE_BOUND('',#469,.T.);
#471=ADVANCED_FACE('',(#467,#470),#456,.T.);
#472=CARTESIAN_POINT('',(0.0,11.962500000000000,0.0));
#473=DIRECTION('',(1.0,0.0,0.0));
#474=DIRECTION('',(0.0,0.0,-1.0));
#475=AXIS2_PLACEMENT_3D('',#472,#473,#474);
#476=PLANE('',#475);
#477=ORIENTED_EDGE('',*,*,#464,.T.);
#478=EDGE_LOOP('',(#477));
#479=FACE_OUTER_BOUND('',#478,.T.);
#480=ORIENTED_EDGE('',*,*,#199,.F.);
#481=EDGE_LOOP('',(#480));
#482=FACE_BOUND('',#481,.T.);
#483=ADVANCED_FACE('',(#479,#482),#476,.T.);
#484=CLOSED_SHELL('',(#95,#115,#135,#155,#175,#203,#223,#243,#263,#283,#303,#371,#383,#451,#471,#483));
#485=MANIFOLD_SOLID_BREP('',#484);
#486=COLOUR_RGB('Metall - Stahl',0.639216005802155,0.639216005802155,0.686275005340576);
#487=FILL_AREA_STYLE_COLOUR('Metall - Stahl',#486);
#488=FILL_AREA_STYLE('Metall - Stahl',(#487));
#489=SURFACE_STYLE_FILL_AREA(#488);
#490=SURFACE_SIDE_STYLE('Metall - Stahl',(#489));
#491=SURFACE_STYLE_USAGE(.BOTH.,#490);
#492=PRESENTATION_STYLE_ASSIGNMENT((#491));
#493=STYLED_ITEM('',(#492),#485);
#494=MECHANICAL_DESIGN_GEOMETRIC_PRESENTATION_REPRESENTATION('',(#493),#36);
#495=ADVANCED_BREP_SHAPE_REPRESENTATION('ABSR',(#485),#36);
#496=SHAPE_REPRESENTATION_RELATIONSHIP('SRR','None',#495,#41);
ENDSEC;
END-ISO-10303-21;
