ISO-10303-21;
HEADER;
/****************************************************************
 * Generated by software with PDE/Lib inside                    *
 * PDElib Version v51a, created Thu 12/14/2006                  *
 * International Technegroup Inc. (www.iti-oh.com)              *
 ****************************************************************/
FILE_DESCRIPTION((''),'2;1');
FILE_NAME('T:\\Arbeitspl\S\dtze\\Aushilfe\\KPeters\\3D\\Steps 08_10\\7030\\70301300X.stp','2010-09-07T08:29:31',('thilbrands'),(''),'Autodesk Inventor 2008','Autodesk Inventor 2008','');
FILE_SCHEMA(('AUTOMOTIVE_DESIGN { 1 0 10303 214 1 1 1 1 }'));
ENDSEC;
DATA;
#5=APPLICATION_CONTEXT('automotive design');
#6=APPLICATION_PROTOCOL_DEFINITION('International Standard','automotive_design',2001,#5);
#7=PRODUCT_CONTEXT('',#5,'mechanical');
#8=PRODUCT('703000251','703000251',$,(#7));
#9=PRODUCT_RELATED_PRODUCT_CATEGORY('part',$,(#8));
#10=PRODUCT_DEFINITION_FORMATION('',$,#8);
#11=PRODUCT_DEFINITION_CONTEXT('part definition',#5,'design');
#12=PRODUCT_DEFINITION('',$,#10,#11);
#18=(NAMED_UNIT(*)PLANE_ANGLE_UNIT()SI_UNIT($,.RADIAN.));
#19=DIMENSIONAL_EXPONENTS(0.0,0.0,0.0,0.0,0.0,0.0,0.0);
#20=PLANE_ANGLE_MEASURE_WITH_UNIT(PLANE_ANGLE_MEASURE(0.017453292500000),#18);
#24=(CONVERSION_BASED_UNIT('DEGREE',#20)NAMED_UNIT(#19)PLANE_ANGLE_UNIT());
#28=(NAMED_UNIT(*)SI_UNIT($,.STERADIAN.)SOLID_ANGLE_UNIT());
#32=(LENGTH_UNIT()NAMED_UNIT(*)SI_UNIT(.MILLI.,.METRE.));
#34=UNCERTAINTY_MEASURE_WITH_UNIT(LENGTH_MEASURE(0.010000000000000),#32,'DISTANCE_ACCURACY_VALUE','');
#36=(GEOMETRIC_REPRESENTATION_CONTEXT(3)GLOBAL_UNCERTAINTY_ASSIGNED_CONTEXT((#34))GLOBAL_UNIT_ASSIGNED_CONTEXT((#24,#28,#32))REPRESENTATION_CONTEXT('None','None'));
#37=AXIS2_PLACEMENT_3D('',#38,#39,#40);
#38=CARTESIAN_POINT('',(0.0,0.0,0.0));
#39=DIRECTION('',(0.0,0.0,1.0));
#40=DIRECTION('',(1.0,0.0,0.0));
#41=SHAPE_REPRESENTATION('',(#37),#36);
#42=PRODUCT_DEFINITION_SHAPE('','',#12);
#43=SHAPE_DEFINITION_REPRESENTATION(#42,#41);
#49=(NAMED_UNIT(*)PLANE_ANGLE_UNIT()SI_UNIT($,.RADIAN.));
#50=DIMENSIONAL_EXPONENTS(0.0,0.0,0.0,0.0,0.0,0.0,0.0);
#51=PLANE_ANGLE_MEASURE_WITH_UNIT(PLANE_ANGLE_MEASURE(0.017453292500000),#49);
#55=(CONVERSION_BASED_UNIT('DEGREE',#51)NAMED_UNIT(#50)PLANE_ANGLE_UNIT());
#59=(NAMED_UNIT(*)SI_UNIT($,.STERADIAN.)SOLID_ANGLE_UNIT());
#63=(LENGTH_UNIT()NAMED_UNIT(*)SI_UNIT(.MILLI.,.METRE.));
#65=UNCERTAINTY_MEASURE_WITH_UNIT(LENGTH_MEASURE(0.000001000000000),#63,'DISTANCE_ACCURACY_VALUE','');
#67=(GEOMETRIC_REPRESENTATION_CONTEXT(3)GLOBAL_UNCERTAINTY_ASSIGNED_CONTEXT((#65))GLOBAL_UNIT_ASSIGNED_CONTEXT((#55,#59,#63))REPRESENTATION_CONTEXT('','3D'));
#68=CARTESIAN_POINT('',(-14.521336126023920,-1.332268E-013,0.0));
#69=DIRECTION('',(1.0,7.936469E-015,0.0));
#70=DIRECTION('',(0.0,0.0,-1.0));
#71=AXIS2_PLACEMENT_3D('',#68,#69,#70);
#72=TOROIDAL_SURFACE('',#71,30.440000000000094,7.610000000000001);
#73=CARTESIAN_POINT('',(-7.657474130266513,33.726259043835960,0.0));
#74=VERTEX_POINT('',#73);
#75=CARTESIAN_POINT('',(-7.657474130266245,-7.942006E-014,0.0));
#76=DIRECTION('',(1.0,0.0,0.0));
#77=DIRECTION('',(0.0,1.0,0.0));
#78=AXIS2_PLACEMENT_3D('',#75,#76,#77);
#79=CIRCLE('',#78,33.726259043836045);
#80=EDGE_CURVE('',#74,#74,#79,.T.);
#81=ORIENTED_EDGE('',*,*,#80,.F.);
#82=EDGE_LOOP('',(#81));
#83=FACE_OUTER_BOUND('',#82,.T.);
#84=CARTESIAN_POINT('',(-14.521336126024163,38.049999999999969,0.0));
#85=VERTEX_POINT('',#84);
#86=CARTESIAN_POINT('',(-14.521336126023861,-1.338949E-013,0.0));
#87=DIRECTION('',(1.0,0.0,0.0));
#88=DIRECTION('',(0.0,1.0,0.0));
#89=AXIS2_PLACEMENT_3D('',#86,#87,#88);
#90=CIRCLE('',#89,38.050000000000104);
#91=EDGE_CURVE('',#85,#85,#90,.T.);
#92=ORIENTED_EDGE('',*,*,#91,.T.);
#93=EDGE_LOOP('',(#92));
#94=FACE_BOUND('',#93,.T.);
#95=ADVANCED_FACE('',(#83,#94),#72,.T.);
#96=CARTESIAN_POINT('',(-78.099999999999994,-3.299350E-014,0.0));
#97=DIRECTION('',(0.0,0.0,1.0));
#98=DIRECTION('',(1.0,0.0,0.0));
#99=AXIS2_PLACEMENT_3D('',#96,#97,#98);
#100=SPHERICAL_SURFACE('',#99,78.100000000000591);
#101=ORIENTED_EDGE('',*,*,#80,.T.);
#102=EDGE_LOOP('',(#101));
#103=FACE_OUTER_BOUND('',#102,.T.);
#104=ADVANCED_FACE('',(#103),#100,.T.);
#105=CARTESIAN_POINT('',(-16.191193828112382,-29.640510590277383,-32.862590438360115));
#106=CARTESIAN_POINT('',(-1.999999999999545,-36.434927361664975,0.0));
#107=CARTESIAN_POINT('',(-16.191193828112382,-29.640510590277383,32.862590438360115));
#108=CARTESIAN_POINT('',(-1.999999999999268,-7.460699E-014,-32.862590438360115));
#109=CARTESIAN_POINT('',(15.444204097895209,-7.815970E-014,0.0));
#110=CARTESIAN_POINT('',(-1.999999999999268,-7.460699E-014,32.862590438360115));
#111=CARTESIAN_POINT('',(-16.191193828112340,29.640510590277245,-32.862590438360115));
#112=CARTESIAN_POINT('',(-1.999999999999503,36.434927361664833,0.0));
#113=CARTESIAN_POINT('',(-16.191193828112340,29.640510590277245,32.862590438360115));
#121=(BOUNDED_SURFACE()B_SPLINE_SURFACE(2,2,((#105,#108,#111),(#106,#109,#112),(#107,#110,#113)),.UNSPECIFIED.,.F.,.F.,.U.)B_SPLINE_SURFACE_WITH_KNOTS((3,3),(3,3),(-0.446525490322160,0.446525490322160),(0.0,0.893050980644326),.UNSPECIFIED.)GEOMETRIC_REPRESENTATION_ITEM()RATIONAL_B_SPLINE_SURFACE(((1.0,0.901952956078533,1.0),(0.901952956078535,0.813519134978806,0.901952956078535),(1.0,0.901952956078533,1.0)))REPRESENTATION_ITEM('')SURFACE());
#122=CARTESIAN_POINT('',(-9.461380042423579,32.862590438360016,0.0));
#123=VERTEX_POINT('',#122);
#124=CARTESIAN_POINT('',(-9.461380042423320,-9.373671E-014,0.0));
#125=DIRECTION('',(1.0,0.0,0.0));
#126=DIRECTION('',(0.0,1.0,0.0));
#127=AXIS2_PLACEMENT_3D('',#124,#125,#126);
#128=CIRCLE('',#127,32.862590438360108);
#129=EDGE_CURVE('',#123,#123,#128,.T.);
#130=ORIENTED_EDGE('',*,*,#129,.F.);
#131=EDGE_LOOP('',(#130));
#132=FACE_OUTER_BOUND('',#131,.T.);
#133=ADVANCED_FACE('',(#132),#121,.T.);
#134=CARTESIAN_POINT('',(-14.521336126024448,-1.376415E-013,36.050000000000097));
#135=CARTESIAN_POINT('',(-8.911336126023917,-9.311788E-014,36.050000000000622));
#136=CARTESIAN_POINT('',(-8.911336126023917,-9.243088E-014,30.440000000000094));
#137=CARTESIAN_POINT('',(-8.911336126023917,-9.174387E-014,24.829999999999568));
#138=CARTESIAN_POINT('',(-14.521336126024448,-1.362675E-013,24.830000000000091));
#139=CARTESIAN_POINT('',(-14.521336126024162,-36.050000000000232,36.050000000000082));
#140=CARTESIAN_POINT('',(-8.911336126023631,-36.050000000000708,36.050000000000608));
#141=CARTESIAN_POINT('',(-8.911336126023675,-30.440000000000179,30.440000000000083));
#142=CARTESIAN_POINT('',(-8.911336126023720,-24.829999999999650,24.829999999999554));
#143=CARTESIAN_POINT('',(-14.521336126024250,-24.830000000000222,24.830000000000080));
#144=CARTESIAN_POINT('',(-14.521336126024162,-36.050000000000232,-4.414706E-015));
#145=CARTESIAN_POINT('',(-8.911336126023631,-36.050000000000708,-4.414706E-015));
#146=CARTESIAN_POINT('',(-8.911336126023675,-30.440000000000182,-3.727702E-015));
#147=CARTESIAN_POINT('',(-8.911336126023720,-24.829999999999654,-3.040698E-015));
#148=CARTESIAN_POINT('',(-14.521336126024250,-24.830000000000226,-3.040698E-015));
#149=CARTESIAN_POINT('',(-14.521336126024162,-36.050000000000217,-36.050000000000097));
#150=CARTESIAN_POINT('',(-8.911336126023631,-36.050000000000693,-36.050000000000622));
#151=CARTESIAN_POINT('',(-8.911336126023675,-30.440000000000172,-30.440000000000087));
#152=CARTESIAN_POINT('',(-8.911336126023720,-24.829999999999643,-24.829999999999561));
#153=CARTESIAN_POINT('',(-14.521336126024250,-24.830000000000215,-24.830000000000087));
#154=CARTESIAN_POINT('',(-14.521336126024448,-1.288121E-013,-36.050000000000097));
#155=CARTESIAN_POINT('',(-8.911336126023917,-8.428847E-014,-36.050000000000622));
#156=CARTESIAN_POINT('',(-8.911336126023917,-8.497547E-014,-30.440000000000094));
#157=CARTESIAN_POINT('',(-8.911336126023917,-8.566248E-014,-24.829999999999568));
#158=CARTESIAN_POINT('',(-14.521336126024448,-1.301861E-013,-24.830000000000091));
#159=CARTESIAN_POINT('',(-14.521336126024732,36.049999999999962,-36.050000000000082));
#160=CARTESIAN_POINT('',(-8.911336126024203,36.050000000000537,-36.050000000000608));
#161=CARTESIAN_POINT('',(-8.911336126024159,30.440000000000001,-30.440000000000083));
#162=CARTESIAN_POINT('',(-8.911336126024114,24.829999999999472,-24.829999999999554));
#163=CARTESIAN_POINT('',(-14.521336126024645,24.829999999999949,-24.830000000000080));
#164=CARTESIAN_POINT('',(-14.521336126024734,36.049999999999962,4.414706E-015));
#165=CARTESIAN_POINT('',(-8.911336126024203,36.050000000000537,4.414706E-015));
#166=CARTESIAN_POINT('',(-8.911336126024159,30.440000000000005,3.727702E-015));
#167=CARTESIAN_POINT('',(-8.911336126024114,24.829999999999476,3.040698E-015));
#168=CARTESIAN_POINT('',(-14.521336126024645,24.829999999999956,3.040698E-015));
#169=CARTESIAN_POINT('',(-14.521336126024732,36.049999999999947,36.050000000000097));
#170=CARTESIAN_POINT('',(-8.911336126024203,36.050000000000523,36.050000000000622));
#171=CARTESIAN_POINT('',(-8.911336126024159,30.439999999999991,30.440000000000087));
#172=CARTESIAN_POINT('',(-8.911336126024114,24.829999999999465,24.829999999999561));
#173=CARTESIAN_POINT('',(-14.521336126024645,24.829999999999945,24.830000000000087));
#174=CARTESIAN_POINT('',(-14.521336126024448,-1.376415E-013,36.050000000000097));
#175=CARTESIAN_POINT('',(-8.911336126023917,-9.311788E-014,36.050000000000622));
#176=CARTESIAN_POINT('',(-8.911336126023917,-9.243088E-014,30.440000000000094));
#177=CARTESIAN_POINT('',(-8.911336126023917,-9.174387E-014,24.829999999999568));
#178=CARTESIAN_POINT('',(-14.521336126024448,-1.362675E-013,24.830000000000091));
#186=(BOUNDED_SURFACE()B_SPLINE_SURFACE(2,2,((#134,#139,#144,#149,#154,#159,#164,#169,#174),(#135,#140,#145,#150,#155,#160,#165,#170,#175),(#136,#141,#146,#151,#156,#161,#166,#171,#176),(#137,#142,#147,#152,#157,#162,#167,#172,#177),(#138,#143,#148,#153,#158,#163,#168,#173,#178)),.UNSPECIFIED.,.F.,.T.,.U.)B_SPLINE_SURFACE_WITH_KNOTS((3,2,3),(3,2,2,2,3),(-9.406314E-014,1.570796326794897,3.141592653589887),(0.0,1.570796326794897,3.141592653589793,4.712388980384690,6.283185307179586),.UNSPECIFIED.)GEOMETRIC_REPRESENTATION_ITEM()RATIONAL_B_SPLINE_SURFACE(((1.0,0.707106781186548,1.0,0.707106781186548,1.0,0.707106781186548,1.0,0.707106781186548,1.0),(0.707106781186513,0.499999999999976,0.707106781186513,0.499999999999976,0.707106781186513,0.499999999999976,0.707106781186513,0.499999999999976,0.707106781186513),(1.0,0.707106781186548,1.0,0.707106781186548,1.0,0.707106781186548,1.0,0.707106781186548,1.0),(0.707106781186515,0.499999999999977,0.707106781186515,0.499999999999977,0.707106781186515,0.499999999999977,0.707106781186515,0.499999999999977,0.707106781186515),(1.0,0.707106781186548,1.0,0.707106781186548,1.0,0.707106781186548,1.0,0.707106781186548,1.0)))REPRESENTATION_ITEM('')SURFACE());
#187=CARTESIAN_POINT('',(-14.521336126024163,36.049999999999976,0.0));
#188=VERTEX_POINT('',#187);
#189=CARTESIAN_POINT('',(-14.521336126023876,-1.338949E-013,0.0));
#190=DIRECTION('',(1.0,0.0,0.0));
#191=DIRECTION('',(0.0,1.0,0.0));
#192=AXIS2_PLACEMENT_3D('',#189,#190,#191);
#193=CIRCLE('',#192,36.050000000000104);
#194=EDGE_CURVE('',#188,#188,#193,.T.);
#195=ORIENTED_EDGE('',*,*,#194,.F.);
#196=EDGE_LOOP('',(#195));
#197=FACE_OUTER_BOUND('',#196,.T.);
#198=ORIENTED_EDGE('',*,*,#129,.T.);
#199=EDGE_LOOP('',(#198));
#200=FACE_BOUND('',#199,.T.);
#201=ADVANCED_FACE('',(#197,#200),#186,.T.);
#202=CARTESIAN_POINT('',(-17.260668063011796,-1.556355E-013,0.0));
#203=DIRECTION('',(1.0,7.936469E-015,0.0));
#204=DIRECTION('',(0.0,1.0,0.0));
#205=AXIS2_PLACEMENT_3D('',#202,#203,#204);
#206=CYLINDRICAL_SURFACE('',#205,36.050000000000132);
#207=CARTESIAN_POINT('',(-20.0,36.049999999999976,0.0));
#208=VERTEX_POINT('',#207);
#209=CARTESIAN_POINT('',(-19.999999999999712,-1.773761E-013,0.0));
#210=DIRECTION('',(1.0,0.0,0.0));
#211=DIRECTION('',(0.0,1.0,0.0));
#212=AXIS2_PLACEMENT_3D('',#209,#210,#211);
#213=CIRCLE('',#212,36.050000000000153);
#214=EDGE_CURVE('',#208,#208,#213,.T.);
#215=ORIENTED_EDGE('',*,*,#214,.F.);
#216=EDGE_LOOP('',(#215));
#217=FACE_OUTER_BOUND('',#216,.T.);
#218=ORIENTED_EDGE('',*,*,#194,.T.);
#219=EDGE_LOOP('',(#218));
#220=FACE_BOUND('',#219,.T.);
#221=ADVANCED_FACE('',(#217,#220),#206,.F.);
#222=CARTESIAN_POINT('',(-20.0,37.049999999999976,0.0));
#223=DIRECTION('',(-1.0,0.0,0.0));
#224=DIRECTION('',(0.0,0.0,1.0));
#225=AXIS2_PLACEMENT_3D('',#222,#223,#224);
#226=PLANE('',#225);
#227=CARTESIAN_POINT('',(-20.0,38.049999999999969,0.0));
#228=VERTEX_POINT('',#227);
#229=CARTESIAN_POINT('',(-19.999999999999698,-1.773761E-013,0.0));
#230=DIRECTION('',(1.0,0.0,0.0));
#231=DIRECTION('',(0.0,1.0,0.0));
#232=AXIS2_PLACEMENT_3D('',#229,#230,#231);
#233=CIRCLE('',#232,38.050000000000146);
#234=EDGE_CURVE('',#228,#228,#233,.T.);
#235=ORIENTED_EDGE('',*,*,#234,.F.);
#236=EDGE_LOOP('',(#235));
#237=FACE_OUTER_BOUND('',#236,.T.);
#238=ORIENTED_EDGE('',*,*,#214,.T.);
#239=EDGE_LOOP('',(#238));
#240=FACE_BOUND('',#239,.T.);
#241=ADVANCED_FACE('',(#237,#240),#226,.T.);
#242=CARTESIAN_POINT('',(-17.260668063011778,-1.556355E-013,0.0));
#243=DIRECTION('',(1.0,7.936469E-015,0.0));
#244=DIRECTION('',(0.0,1.0,0.0));
#245=AXIS2_PLACEMENT_3D('',#242,#243,#244);
#246=CYLINDRICAL_SURFACE('',#245,38.050000000000125);
#247=ORIENTED_EDGE('',*,*,#91,.F.);
#248=EDGE_LOOP('',(#247));
#249=FACE_OUTER_BOUND('',#248,.T.);
#250=ORIENTED_EDGE('',*,*,#234,.T.);
#251=EDGE_LOOP('',(#250));
#252=FACE_BOUND('',#251,.T.);
#253=ADVANCED_FACE('',(#249,#252),#246,.T.);
#254=CLOSED_SHELL('',(#95,#104,#133,#201,#221,#241,#253));
#255=MANIFOLD_SOLID_BREP('',#254);
#256=COLOUR_RGB('Metall - Stahl',0.639216005802155,0.639216005802155,0.686275005340576);
#257=FILL_AREA_STYLE_COLOUR('Metall - Stahl',#256);
#258=FILL_AREA_STYLE('Metall - Stahl',(#257));
#259=SURFACE_STYLE_FILL_AREA(#258);
#260=SURFACE_SIDE_STYLE('Metall - Stahl',(#259));
#261=SURFACE_STYLE_USAGE(.BOTH.,#260);
#262=PRESENTATION_STYLE_ASSIGNMENT((#261));
#263=STYLED_ITEM('',(#262),#255);
#264=MECHANICAL_DESIGN_GEOMETRIC_PRESENTATION_REPRESENTATION('',(#263),#36);
#265=ADVANCED_BREP_SHAPE_REPRESENTATION('ABSR',(#255),#36);
#266=SHAPE_REPRESENTATION_RELATIONSHIP('SRR','None',#265,#41);
ENDSEC;
END-ISO-10303-21;
