ISO-10303-21;
HEADER;
/****************************************************************
 * Generated by software with PDE/Lib inside                    *
 * PDElib Version v51a, created Thu 12/14/2006                  *
 * International Technegroup Inc. (www.iti-oh.com)              *
 ****************************************************************/
FILE_DESCRIPTION((''),'2;1');
FILE_NAME('T:\\Arbeitspl\S\dtze\\Aushilfe\\KPeters\\3D\\Steps 08_10\\11424\\114240321.stp','2010-08-02T10:43:05',('thilbrands'),(''),'Autodesk Inventor 2008','Autodesk Inventor 2008','');
FILE_SCHEMA(('AUTOMOTIVE_DESIGN { 1 0 10303 214 1 1 1 1 }'));
ENDSEC;
DATA;
#5=APPLICATION_CONTEXT('automotive design');
#6=APPLICATION_PROTOCOL_DEFINITION('International Standard','automotive_design',2001,#5);
#7=PRODUCT_CONTEXT('',#5,'mechanical');
#8=PRODUCT('114240101','114240101',$,(#7));
#9=PRODUCT_RELATED_PRODUCT_CATEGORY('part',$,(#8));
#10=PRODUCT_DEFINITION_FORMATION('',$,#8);
#11=PRODUCT_DEFINITION_CONTEXT('part definition',#5,'design');
#12=PRODUCT_DEFINITION('',$,#10,#11);
#18=(NAMED_UNIT(*)PLANE_ANGLE_UNIT()SI_UNIT($,.RADIAN.));
#19=DIMENSIONAL_EXPONENTS(0.0,0.0,0.0,0.0,0.0,0.0,0.0);
#20=PLANE_ANGLE_MEASURE_WITH_UNIT(PLANE_ANGLE_MEASURE(0.017453292500000),#18);
#24=(CONVERSION_BASED_UNIT('DEGREE',#20)NAMED_UNIT(#19)PLANE_ANGLE_UNIT());
#28=(NAMED_UNIT(*)SI_UNIT($,.STERADIAN.)SOLID_ANGLE_UNIT());
#32=(LENGTH_UNIT()NAMED_UNIT(*)SI_UNIT(.MILLI.,.METRE.));
#34=UNCERTAINTY_MEASURE_WITH_UNIT(LENGTH_MEASURE(0.010000000000000),#32,'DISTANCE_ACCURACY_VALUE','');
#36=(GEOMETRIC_REPRESENTATION_CONTEXT(3)GLOBAL_UNCERTAINTY_ASSIGNED_CONTEXT((#34))GLOBAL_UNIT_ASSIGNED_CONTEXT((#24,#28,#32))REPRESENTATION_CONTEXT('None','None'));
#37=AXIS2_PLACEMENT_3D('',#38,#39,#40);
#38=CARTESIAN_POINT('',(0.0,0.0,0.0));
#39=DIRECTION('',(0.0,0.0,1.0));
#40=DIRECTION('',(1.0,0.0,0.0));
#41=SHAPE_REPRESENTATION('',(#37),#36);
#42=PRODUCT_DEFINITION_SHAPE('','',#12);
#43=SHAPE_DEFINITION_REPRESENTATION(#42,#41);
#49=(NAMED_UNIT(*)PLANE_ANGLE_UNIT()SI_UNIT($,.RADIAN.));
#50=DIMENSIONAL_EXPONENTS(0.0,0.0,0.0,0.0,0.0,0.0,0.0);
#51=PLANE_ANGLE_MEASURE_WITH_UNIT(PLANE_ANGLE_MEASURE(0.017453292500000),#49);
#55=(CONVERSION_BASED_UNIT('DEGREE',#51)NAMED_UNIT(#50)PLANE_ANGLE_UNIT());
#59=(NAMED_UNIT(*)SI_UNIT($,.STERADIAN.)SOLID_ANGLE_UNIT());
#63=(LENGTH_UNIT()NAMED_UNIT(*)SI_UNIT(.MILLI.,.METRE.));
#65=UNCERTAINTY_MEASURE_WITH_UNIT(LENGTH_MEASURE(0.000001000000000),#63,'DISTANCE_ACCURACY_VALUE','');
#67=(GEOMETRIC_REPRESENTATION_CONTEXT(3)GLOBAL_UNCERTAINTY_ASSIGNED_CONTEXT((#65))GLOBAL_UNIT_ASSIGNED_CONTEXT((#55,#59,#63))REPRESENTATION_CONTEXT('','3D'));
#68=CARTESIAN_POINT('',(-7.500000000000002,0.0,0.0));
#69=DIRECTION('',(1.0,0.0,0.0));
#70=DIRECTION('',(0.0,1.0,0.0));
#71=AXIS2_PLACEMENT_3D('',#68,#69,#70);
#72=CYLINDRICAL_SURFACE('',#71,16.0);
#73=CARTESIAN_POINT('',(-15.000000000000004,15.999999999999996,0.0));
#74=VERTEX_POINT('',#73);
#75=CARTESIAN_POINT('',(-15.000000000000004,0.0,0.0));
#76=DIRECTION('',(1.0,0.0,0.0));
#77=DIRECTION('',(0.0,1.0,0.0));
#78=AXIS2_PLACEMENT_3D('',#75,#76,#77);
#79=CIRCLE('',#78,15.999999999999996);
#80=EDGE_CURVE('',#74,#74,#79,.T.);
#81=ORIENTED_EDGE('',*,*,#80,.F.);
#82=EDGE_LOOP('',(#81));
#83=FACE_OUTER_BOUND('',#82,.T.);
#84=CARTESIAN_POINT('',(-1.110223E-015,16.000000000000004,0.0));
#85=VERTEX_POINT('',#84);
#86=CARTESIAN_POINT('',(-1.110223E-015,0.0,0.0));
#87=DIRECTION('',(1.0,0.0,0.0));
#88=DIRECTION('',(0.0,1.0,0.0));
#89=AXIS2_PLACEMENT_3D('',#86,#87,#88);
#90=CIRCLE('',#89,16.000000000000004);
#91=EDGE_CURVE('',#85,#85,#90,.T.);
#92=ORIENTED_EDGE('',*,*,#91,.T.);
#93=EDGE_LOOP('',(#92));
#94=FACE_BOUND('',#93,.T.);
#95=ADVANCED_FACE('',(#83,#94),#72,.F.);
#96=CARTESIAN_POINT('',(-15.000000000000004,16.249999999999996,0.0));
#97=DIRECTION('',(-1.0,0.0,0.0));
#98=DIRECTION('',(0.0,0.0,1.0));
#99=AXIS2_PLACEMENT_3D('',#96,#97,#98);
#100=PLANE('',#99);
#101=CARTESIAN_POINT('',(-15.000000000000002,16.499999999999993,0.0));
#102=VERTEX_POINT('',#101);
#103=CARTESIAN_POINT('',(-15.000000000000002,0.0,0.0));
#104=DIRECTION('',(1.0,0.0,0.0));
#105=DIRECTION('',(0.0,1.0,0.0));
#106=AXIS2_PLACEMENT_3D('',#103,#104,#105);
#107=CIRCLE('',#106,16.499999999999993);
#108=EDGE_CURVE('',#102,#102,#107,.T.);
#109=ORIENTED_EDGE('',*,*,#108,.F.);
#110=EDGE_LOOP('',(#109));
#111=FACE_OUTER_BOUND('',#110,.T.);
#112=ORIENTED_EDGE('',*,*,#80,.T.);
#113=EDGE_LOOP('',(#112));
#114=FACE_BOUND('',#113,.T.);
#115=ADVANCED_FACE('',(#111,#114),#100,.T.);
#116=CARTESIAN_POINT('',(-14.739273682649374,0.0,0.0));
#117=DIRECTION('',(1.0,0.0,0.0));
#118=DIRECTION('',(0.0,1.0,0.0));
#119=AXIS2_PLACEMENT_3D('',#116,#117,#118);
#120=CONICAL_SURFACE('',#119,19.480115444024023,85.000000000000085);
#121=CARTESIAN_POINT('',(-14.478547365298748,22.460230888048052,0.0));
#122=VERTEX_POINT('',#121);
#123=CARTESIAN_POINT('',(-14.478547365298748,0.0,0.0));
#124=DIRECTION('',(1.0,0.0,0.0));
#125=DIRECTION('',(0.0,1.0,0.0));
#126=AXIS2_PLACEMENT_3D('',#123,#124,#125);
#127=CIRCLE('',#126,22.460230888048052);
#128=EDGE_CURVE('',#122,#122,#127,.T.);
#129=ORIENTED_EDGE('',*,*,#128,.F.);
#130=EDGE_LOOP('',(#129));
#131=FACE_OUTER_BOUND('',#130,.T.);
#132=ORIENTED_EDGE('',*,*,#108,.T.);
#133=EDGE_LOOP('',(#132));
#134=FACE_BOUND('',#133,.T.);
#135=ADVANCED_FACE('',(#131,#134),#120,.T.);
#136=CARTESIAN_POINT('',(-9.739273682649376,0.0,0.0));
#137=DIRECTION('',(1.0,0.0,0.0));
#138=DIRECTION('',(0.0,1.0,0.0));
#139=AXIS2_PLACEMENT_3D('',#136,#137,#138);
#140=CONICAL_SURFACE('',#139,23.730115444024026,15.000000000000009);
#141=CARTESIAN_POINT('',(-5.000000000000004,25.0,0.0));
#142=VERTEX_POINT('',#141);
#143=CARTESIAN_POINT('',(-5.000000000000004,0.0,0.0));
#144=DIRECTION('',(1.0,0.0,0.0));
#145=DIRECTION('',(0.0,1.0,0.0));
#146=AXIS2_PLACEMENT_3D('',#143,#144,#145);
#147=CIRCLE('',#146,25.0);
#148=EDGE_CURVE('',#142,#142,#147,.T.);
#149=ORIENTED_EDGE('',*,*,#148,.F.);
#150=EDGE_LOOP('',(#149));
#151=FACE_OUTER_BOUND('',#150,.T.);
#152=ORIENTED_EDGE('',*,*,#128,.T.);
#153=EDGE_LOOP('',(#152));
#154=FACE_BOUND('',#153,.T.);
#155=ADVANCED_FACE('',(#151,#154),#140,.T.);
#156=CARTESIAN_POINT('',(-5.000000000000002,22.0,0.0));
#157=DIRECTION('',(1.0,0.0,0.0));
#158=DIRECTION('',(0.0,0.0,-1.0));
#159=AXIS2_PLACEMENT_3D('',#156,#157,#158);
#160=PLANE('',#159);
#161=ORIENTED_EDGE('',*,*,#148,.T.);
#162=EDGE_LOOP('',(#161));
#163=FACE_OUTER_BOUND('',#162,.T.);
#164=CARTESIAN_POINT('',(-5.000000000000001,19.0,0.0));
#165=VERTEX_POINT('',#164);
#166=CARTESIAN_POINT('',(-5.000000000000001,0.0,0.0));
#167=DIRECTION('',(1.0,0.0,0.0));
#168=DIRECTION('',(0.0,1.0,0.0));
#169=AXIS2_PLACEMENT_3D('',#166,#167,#168);
#170=CIRCLE('',#169,19.0);
#171=EDGE_CURVE('',#165,#165,#170,.T.);
#172=ORIENTED_EDGE('',*,*,#171,.F.);
#173=EDGE_LOOP('',(#172));
#174=FACE_BOUND('',#173,.T.);
#175=ADVANCED_FACE('',(#163,#174),#160,.T.);
#176=CARTESIAN_POINT('',(-3.500000000000001,-2.143061E-015,17.500000000000000));
#177=CARTESIAN_POINT('',(-5.000000000000002,-2.143061E-015,17.500000000000000));
#178=CARTESIAN_POINT('',(-5.000000000000002,-2.326752E-015,19.0));
#179=CARTESIAN_POINT('',(-5.000000000000002,-2.510443E-015,20.500000000000000));
#180=CARTESIAN_POINT('',(-3.500000000000001,-2.510443E-015,20.500000000000000));
#181=CARTESIAN_POINT('',(-3.500000000000001,-17.500000000000000,17.499999999999993));
#182=CARTESIAN_POINT('',(-5.000000000000002,-17.500000000000000,17.499999999999993));
#183=CARTESIAN_POINT('',(-5.000000000000002,-19.0,18.999999999999993));
#184=CARTESIAN_POINT('',(-5.000000000000002,-20.500000000000000,20.499999999999993));
#185=CARTESIAN_POINT('',(-3.500000000000001,-20.500000000000000,20.499999999999993));
#186=CARTESIAN_POINT('',(-3.500000000000001,-17.500000000000000,-2.143061E-015));
#187=CARTESIAN_POINT('',(-5.000000000000002,-17.500000000000000,-2.143061E-015));
#188=CARTESIAN_POINT('',(-5.000000000000002,-19.0,-2.326752E-015));
#189=CARTESIAN_POINT('',(-5.000000000000002,-20.500000000000000,-2.510443E-015));
#190=CARTESIAN_POINT('',(-3.500000000000001,-20.500000000000000,-2.510443E-015));
#191=CARTESIAN_POINT('',(-3.500000000000001,-17.499999999999993,-17.500000000000000));
#192=CARTESIAN_POINT('',(-5.000000000000002,-17.499999999999993,-17.500000000000000));
#193=CARTESIAN_POINT('',(-5.000000000000002,-18.999999999999993,-19.0));
#194=CARTESIAN_POINT('',(-5.000000000000002,-20.499999999999993,-20.500000000000000));
#195=CARTESIAN_POINT('',(-3.500000000000001,-20.499999999999993,-20.500000000000000));
#196=CARTESIAN_POINT('',(-3.500000000000001,2.143061E-015,-17.500000000000000));
#197=CARTESIAN_POINT('',(-5.000000000000002,2.143061E-015,-17.500000000000000));
#198=CARTESIAN_POINT('',(-5.000000000000002,2.326752E-015,-19.0));
#199=CARTESIAN_POINT('',(-5.000000000000002,2.510443E-015,-20.500000000000000));
#200=CARTESIAN_POINT('',(-3.500000000000001,2.510443E-015,-20.500000000000000));
#201=CARTESIAN_POINT('',(-3.500000000000001,17.500000000000000,-17.499999999999993));
#202=CARTESIAN_POINT('',(-5.000000000000002,17.500000000000000,-17.499999999999993));
#203=CARTESIAN_POINT('',(-5.000000000000002,19.0,-18.999999999999993));
#204=CARTESIAN_POINT('',(-5.000000000000002,20.500000000000000,-20.499999999999993));
#205=CARTESIAN_POINT('',(-3.500000000000001,20.500000000000000,-20.499999999999993));
#206=CARTESIAN_POINT('',(-3.500000000000001,17.500000000000000,2.143061E-015));
#207=CARTESIAN_POINT('',(-5.000000000000002,17.500000000000000,2.143061E-015));
#208=CARTESIAN_POINT('',(-5.000000000000002,19.0,2.326752E-015));
#209=CARTESIAN_POINT('',(-5.000000000000002,20.500000000000000,2.510443E-015));
#210=CARTESIAN_POINT('',(-3.500000000000001,20.500000000000000,2.510443E-015));
#211=CARTESIAN_POINT('',(-3.500000000000001,17.499999999999993,17.500000000000000));
#212=CARTESIAN_POINT('',(-5.000000000000002,17.499999999999993,17.500000000000000));
#213=CARTESIAN_POINT('',(-5.000000000000002,18.999999999999993,19.0));
#214=CARTESIAN_POINT('',(-5.000000000000002,20.499999999999993,20.500000000000000));
#215=CARTESIAN_POINT('',(-3.500000000000001,20.499999999999993,20.500000000000000));
#216=CARTESIAN_POINT('',(-3.500000000000001,-2.143061E-015,17.500000000000000));
#217=CARTESIAN_POINT('',(-5.000000000000002,-2.143061E-015,17.500000000000000));
#218=CARTESIAN_POINT('',(-5.000000000000002,-2.326752E-015,19.0));
#219=CARTESIAN_POINT('',(-5.000000000000002,-2.510443E-015,20.500000000000000));
#220=CARTESIAN_POINT('',(-3.500000000000001,-2.510443E-015,20.500000000000000));
#228=(BOUNDED_SURFACE()B_SPLINE_SURFACE(2,2,((#176,#181,#186,#191,#196,#201,#206,#211,#216),(#177,#182,#187,#192,#197,#202,#207,#212,#217),(#178,#183,#188,#193,#198,#203,#208,#213,#218),(#179,#184,#189,#194,#199,#204,#209,#214,#219),(#180,#185,#190,#195,#200,#205,#210,#215,#220)),.UNSPECIFIED.,.F.,.T.,.U.)B_SPLINE_SURFACE_WITH_KNOTS((3,2,3),(3,2,2,2,3),(-3.141592653589794,-1.570796326794897,2.960595E-016),(0.0,1.570796326794897,3.141592653589793,4.712388980384690,6.283185307179586),.UNSPECIFIED.)GEOMETRIC_REPRESENTATION_ITEM()RATIONAL_B_SPLINE_SURFACE(((1.0,0.707106781186548,1.0,0.707106781186548,1.0,0.707106781186548,1.0,0.707106781186548,1.0),(0.707106781186550,0.500000000000002,0.707106781186550,0.500000000000002,0.707106781186550,0.500000000000002,0.707106781186550,0.500000000000002,0.707106781186550),(1.0,0.707106781186548,1.0,0.707106781186548,1.0,0.707106781186548,1.0,0.707106781186548,1.0),(0.707106781186550,0.500000000000002,0.707106781186550,0.500000000000002,0.707106781186550,0.500000000000002,0.707106781186550,0.500000000000002,0.707106781186550),(1.0,0.707106781186548,1.0,0.707106781186548,1.0,0.707106781186548,1.0,0.707106781186548,1.0)))REPRESENTATION_ITEM('')SURFACE());
#229=CARTESIAN_POINT('',(-3.500000000000001,17.500000000000000,0.0));
#230=VERTEX_POINT('',#229);
#231=CARTESIAN_POINT('',(-3.500000000000001,0.0,0.0));
#232=DIRECTION('',(1.0,0.0,0.0));
#233=DIRECTION('',(0.0,1.0,0.0));
#234=AXIS2_PLACEMENT_3D('',#231,#232,#233);
#235=CIRCLE('',#234,17.500000000000000);
#236=EDGE_CURVE('',#230,#230,#235,.T.);
#237=ORIENTED_EDGE('',*,*,#236,.F.);
#238=EDGE_LOOP('',(#237));
#239=FACE_OUTER_BOUND('',#238,.T.);
#240=ORIENTED_EDGE('',*,*,#171,.T.);
#241=EDGE_LOOP('',(#240));
#242=FACE_BOUND('',#241,.T.);
#243=ADVANCED_FACE('',(#239,#242),#228,.T.);
#244=CARTESIAN_POINT('',(-1.750000000000002,0.0,0.0));
#245=DIRECTION('',(1.0,0.0,0.0));
#246=DIRECTION('',(0.0,1.0,0.0));
#247=AXIS2_PLACEMENT_3D('',#244,#245,#246);
#248=CYLINDRICAL_SURFACE('',#247,17.500000000000000);
#249=CARTESIAN_POINT('',(-1.665335E-015,17.500000000000000,0.0));
#250=VERTEX_POINT('',#249);
#251=CARTESIAN_POINT('',(-1.665335E-015,0.0,0.0));
#252=DIRECTION('',(1.0,0.0,0.0));
#253=DIRECTION('',(0.0,1.0,0.0));
#254=AXIS2_PLACEMENT_3D('',#251,#252,#253);
#255=CIRCLE('',#254,17.500000000000000);
#256=EDGE_CURVE('',#250,#250,#255,.T.);
#257=ORIENTED_EDGE('',*,*,#256,.F.);
#258=EDGE_LOOP('',(#257));
#259=FACE_OUTER_BOUND('',#258,.T.);
#260=ORIENTED_EDGE('',*,*,#236,.T.);
#261=EDGE_LOOP('',(#260));
#262=FACE_BOUND('',#261,.T.);
#263=ADVANCED_FACE('',(#259,#262),#248,.T.);
#264=CARTESIAN_POINT('',(-1.387779E-015,16.750000000000004,0.0));
#265=DIRECTION('',(1.0,0.0,0.0));
#266=DIRECTION('',(0.0,0.0,-1.0));
#267=AXIS2_PLACEMENT_3D('',#264,#265,#266);
#268=PLANE('',#267);
#269=ORIENTED_EDGE('',*,*,#256,.T.);
#270=EDGE_LOOP('',(#269));
#271=FACE_OUTER_BOUND('',#270,.T.);
#272=ORIENTED_EDGE('',*,*,#91,.F.);
#273=EDGE_LOOP('',(#272));
#274=FACE_BOUND('',#273,.T.);
#275=ADVANCED_FACE('',(#271,#274),#268,.T.);
#276=CLOSED_SHELL('',(#95,#115,#135,#155,#175,#243,#263,#275));
#277=MANIFOLD_SOLID_BREP('',#276);
#278=COLOUR_RGB('Metall - Stahl',0.639216005802155,0.639216005802155,0.686275005340576);
#279=FILL_AREA_STYLE_COLOUR('Metall - Stahl',#278);
#280=FILL_AREA_STYLE('Metall - Stahl',(#279));
#281=SURFACE_STYLE_FILL_AREA(#280);
#282=SURFACE_SIDE_STYLE('Metall - Stahl',(#281));
#283=SURFACE_STYLE_USAGE(.BOTH.,#282);
#284=PRESENTATION_STYLE_ASSIGNMENT((#283));
#285=STYLED_ITEM('',(#284),#277);
#286=MECHANICAL_DESIGN_GEOMETRIC_PRESENTATION_REPRESENTATION('',(#285),#36);
#287=ADVANCED_BREP_SHAPE_REPRESENTATION('ABSR',(#277),#36);
#288=SHAPE_REPRESENTATION_RELATIONSHIP('SRR','None',#287,#41);
ENDSEC;
END-ISO-10303-21;
