ISO-10303-21;
HEADER;
/* Generated by software containing ST-Developer
 * from STEP Tools, Inc. (www.steptools.com) 
 */

FILE_DESCRIPTION(
/* description */ (''),
/* implementation_level */ '2;1');

FILE_NAME(
/* name */ 'Z:\\Geberit\\Export\\NewStep\\36141.stp',
/* time_stamp */ '2014-04-01T21:05:01+02:00',
/* author */ ('bruh'),
/* organization */ (''),
/* preprocessor_version */ 'ST-DEVELOPER v15.2',
/* originating_system */ 'Autodesk Inventor 2014',
/* authorisation */ '');

FILE_SCHEMA (('AUTOMOTIVE_DESIGN { 1 0 10303 214 3 1 1 }'));
ENDSEC;

DATA;
#10=SHAPE_REPRESENTATION_RELATIONSHIP('SRR','None',#249,#11);
#11=ADVANCED_BREP_SHAPE_REPRESENTATION($,(#135),#240);
#12=STYLED_ITEM($,(#257),#135);
#13=CYLINDRICAL_SURFACE($,#142,13.5);
#14=CYLINDRICAL_SURFACE($,#147,11.);
#15=CYLINDRICAL_SURFACE($,#152,29.);
#16=CYLINDRICAL_SURFACE($,#154,9.5);
#17=PLANE($,#140);
#18=PLANE($,#149);
#19=PLANE($,#157);
#20=PLANE($,#158);
#21=FACE_BOUND($,#44,.T.);
#22=FACE_BOUND($,#46,.T.);
#23=FACE_BOUND($,#48,.T.);
#24=FACE_BOUND($,#50,.T.);
#25=FACE_BOUND($,#52,.T.);
#26=FACE_BOUND($,#54,.T.);
#27=FACE_BOUND($,#56,.T.);
#28=FACE_BOUND($,#58,.T.);
#29=FACE_BOUND($,#60,.T.);
#30=FACE_BOUND($,#62,.T.);
#31=FACE_BOUND($,#63,.T.);
#32=FACE_BOUND($,#64,.T.);
#33=FACE_OUTER_BOUND($,#43,.T.);
#34=FACE_OUTER_BOUND($,#45,.T.);
#35=FACE_OUTER_BOUND($,#47,.T.);
#36=FACE_OUTER_BOUND($,#49,.T.);
#37=FACE_OUTER_BOUND($,#51,.T.);
#38=FACE_OUTER_BOUND($,#53,.T.);
#39=FACE_OUTER_BOUND($,#55,.T.);
#40=FACE_OUTER_BOUND($,#57,.T.);
#41=FACE_OUTER_BOUND($,#59,.T.);
#42=FACE_OUTER_BOUND($,#61,.T.);
#43=EDGE_LOOP($,(#98));
#44=EDGE_LOOP($,(#99));
#45=EDGE_LOOP($,(#100));
#46=EDGE_LOOP($,(#101));
#47=EDGE_LOOP($,(#102));
#48=EDGE_LOOP($,(#103));
#49=EDGE_LOOP($,(#104));
#50=EDGE_LOOP($,(#105));
#51=EDGE_LOOP($,(#106));
#52=EDGE_LOOP($,(#107));
#53=EDGE_LOOP($,(#108));
#54=EDGE_LOOP($,(#109));
#55=EDGE_LOOP($,(#110));
#56=EDGE_LOOP($,(#111));
#57=EDGE_LOOP($,(#112));
#58=EDGE_LOOP($,(#113));
#59=EDGE_LOOP($,(#114));
#60=EDGE_LOOP($,(#115));
#61=EDGE_LOOP($,(#116));
#62=EDGE_LOOP($,(#117));
#63=EDGE_LOOP($,(#118));
#64=EDGE_LOOP($,(#119));
#65=CIRCLE($,#138,13.5);
#66=CIRCLE($,#139,16.5);
#67=CIRCLE($,#141,27.);
#68=CIRCLE($,#143,13.5);
#69=CIRCLE($,#145,11.);
#70=CIRCLE($,#146,13.);
#71=CIRCLE($,#148,11.);
#72=CIRCLE($,#151,29.);
#73=CIRCLE($,#153,29.);
#74=CIRCLE($,#155,9.5);
#75=CIRCLE($,#156,9.5);
#76=VERTEX_POINT($,#207);
#77=VERTEX_POINT($,#209);
#78=VERTEX_POINT($,#212);
#79=VERTEX_POINT($,#215);
#80=VERTEX_POINT($,#218);
#81=VERTEX_POINT($,#220);
#82=VERTEX_POINT($,#223);
#83=VERTEX_POINT($,#227);
#84=VERTEX_POINT($,#230);
#85=VERTEX_POINT($,#233);
#86=VERTEX_POINT($,#235);
#87=EDGE_CURVE($,#76,#76,#65,.T.);
#88=EDGE_CURVE($,#77,#77,#66,.T.);
#89=EDGE_CURVE($,#78,#78,#67,.T.);
#90=EDGE_CURVE($,#79,#79,#68,.T.);
#91=EDGE_CURVE($,#80,#80,#69,.T.);
#92=EDGE_CURVE($,#81,#81,#70,.T.);
#93=EDGE_CURVE($,#82,#82,#71,.T.);
#94=EDGE_CURVE($,#83,#83,#72,.T.);
#95=EDGE_CURVE($,#84,#84,#73,.T.);
#96=EDGE_CURVE($,#85,#85,#74,.T.);
#97=EDGE_CURVE($,#86,#86,#75,.T.);
#98=ORIENTED_EDGE($,*,*,#87,.T.);
#99=ORIENTED_EDGE($,*,*,#88,.T.);
#100=ORIENTED_EDGE($,*,*,#89,.F.);
#101=ORIENTED_EDGE($,*,*,#88,.F.);
#102=ORIENTED_EDGE($,*,*,#90,.T.);
#103=ORIENTED_EDGE($,*,*,#87,.F.);
#104=ORIENTED_EDGE($,*,*,#91,.T.);
#105=ORIENTED_EDGE($,*,*,#92,.T.);
#106=ORIENTED_EDGE($,*,*,#93,.T.);
#107=ORIENTED_EDGE($,*,*,#91,.F.);
#108=ORIENTED_EDGE($,*,*,#90,.F.);
#109=ORIENTED_EDGE($,*,*,#92,.F.);
#110=ORIENTED_EDGE($,*,*,#89,.T.);
#111=ORIENTED_EDGE($,*,*,#94,.T.);
#112=ORIENTED_EDGE($,*,*,#95,.F.);
#113=ORIENTED_EDGE($,*,*,#94,.F.);
#114=ORIENTED_EDGE($,*,*,#96,.F.);
#115=ORIENTED_EDGE($,*,*,#97,.T.);
#116=ORIENTED_EDGE($,*,*,#93,.F.);
#117=ORIENTED_EDGE($,*,*,#96,.T.);
#118=ORIENTED_EDGE($,*,*,#97,.F.);
#119=ORIENTED_EDGE($,*,*,#95,.T.);
#120=TOROIDAL_SURFACE($,#137,16.5,3.);
#121=TOROIDAL_SURFACE($,#144,13.,2.);
#122=TOROIDAL_SURFACE($,#150,27.,2.);
#123=ADVANCED_FACE($,(#33,#21),#120,.F.);
#124=ADVANCED_FACE($,(#34,#22),#17,.T.);
#125=ADVANCED_FACE($,(#35,#23),#13,.T.);
#126=ADVANCED_FACE($,(#36,#24),#121,.F.);
#127=ADVANCED_FACE($,(#37,#25),#14,.T.);
#128=ADVANCED_FACE($,(#38,#26),#18,.T.);
#129=ADVANCED_FACE($,(#39,#27),#122,.T.);
#130=ADVANCED_FACE($,(#40,#28),#15,.T.);
#131=ADVANCED_FACE($,(#41,#29),#16,.F.);
#132=ADVANCED_FACE($,(#42,#30),#19,.T.);
#133=ADVANCED_FACE($,(#31,#32),#20,.T.);
#134=CLOSED_SHELL($,(#123,#124,#125,#126,#127,#128,#129,#130,#131,#132,
#133));
#135=MANIFOLD_SOLID_BREP('Volumenk\X\F6rper1',#134);
#136=AXIS2_PLACEMENT_3D('placement',#205,#159,#160);
#137=AXIS2_PLACEMENT_3D($,#206,#161,#162);
#138=AXIS2_PLACEMENT_3D($,#208,#163,#164);
#139=AXIS2_PLACEMENT_3D($,#210,#165,#166);
#140=AXIS2_PLACEMENT_3D($,#211,#167,#168);
#141=AXIS2_PLACEMENT_3D($,#213,#169,#170);
#142=AXIS2_PLACEMENT_3D($,#214,#171,#172);
#143=AXIS2_PLACEMENT_3D($,#216,#173,#174);
#144=AXIS2_PLACEMENT_3D($,#217,#175,#176);
#145=AXIS2_PLACEMENT_3D($,#219,#177,#178);
#146=AXIS2_PLACEMENT_3D($,#221,#179,#180);
#147=AXIS2_PLACEMENT_3D($,#222,#181,#182);
#148=AXIS2_PLACEMENT_3D($,#224,#183,#184);
#149=AXIS2_PLACEMENT_3D($,#225,#185,#186);
#150=AXIS2_PLACEMENT_3D($,#226,#187,#188);
#151=AXIS2_PLACEMENT_3D($,#228,#189,#190);
#152=AXIS2_PLACEMENT_3D($,#229,#191,#192);
#153=AXIS2_PLACEMENT_3D($,#231,#193,#194);
#154=AXIS2_PLACEMENT_3D($,#232,#195,#196);
#155=AXIS2_PLACEMENT_3D($,#234,#197,#198);
#156=AXIS2_PLACEMENT_3D($,#236,#199,#200);
#157=AXIS2_PLACEMENT_3D($,#237,#201,#202);
#158=AXIS2_PLACEMENT_3D($,#238,#203,#204);
#159=DIRECTION('axis',(0.,0.,1.));
#160=DIRECTION('refdir',(1.,0.,0.));
#161=DIRECTION('center_axis',(-1.,-4.44379470857356E-016,0.));
#162=DIRECTION('ref_axis',(0.,0.,1.));
#163=DIRECTION('center_axis',(-1.,-4.44379470857356E-016,0.));
#164=DIRECTION('ref_axis',(-4.52313084106545E-016,1.,1.22460635382238E-016));
#165=DIRECTION('center_axis',(1.,4.44379470857356E-016,0.));
#166=DIRECTION('ref_axis',(-4.44379470857356E-016,1.,1.22460635382238E-016));
#167=DIRECTION('center_axis',(1.,4.44379470857356E-016,0.));
#168=DIRECTION('ref_axis',(0.,0.,-1.));
#169=DIRECTION('center_axis',(-1.,-4.44379470857356E-016,0.));
#170=DIRECTION('ref_axis',(-4.44379470857356E-016,1.,1.22460635382238E-016));
#171=DIRECTION('center_axis',(-1.,-4.44379470857356E-016,0.));
#172=DIRECTION('ref_axis',(4.44379470857356E-016,-1.,0.));
#173=DIRECTION('center_axis',(-1.,-4.44379470857356E-016,0.));
#174=DIRECTION('ref_axis',(4.44379470857356E-016,-1.,0.));
#175=DIRECTION('center_axis',(-1.,-4.44379470857356E-016,0.));
#176=DIRECTION('ref_axis',(0.,0.,1.));
#177=DIRECTION('center_axis',(-1.,-4.44379470857356E-016,0.));
#178=DIRECTION('ref_axis',(-4.54182146437564E-016,1.,1.22460635382238E-016));
#179=DIRECTION('center_axis',(1.,4.44379470857356E-016,0.));
#180=DIRECTION('ref_axis',(-4.44379470857356E-016,1.,1.22460635382238E-016));
#181=DIRECTION('center_axis',(-1.,-4.44379470857356E-016,0.));
#182=DIRECTION('ref_axis',(4.44379470857356E-016,-1.,0.));
#183=DIRECTION('center_axis',(-1.,-4.44379470857356E-016,0.));
#184=DIRECTION('ref_axis',(4.44379470857356E-016,-1.,0.));
#185=DIRECTION('center_axis',(1.,4.44379470857356E-016,0.));
#186=DIRECTION('ref_axis',(0.,0.,-1.));
#187=DIRECTION('center_axis',(-1.,-4.44379470857356E-016,0.));
#188=DIRECTION('ref_axis',(0.,0.,1.));
#189=DIRECTION('center_axis',(1.,4.44379470857356E-016,0.));
#190=DIRECTION('ref_axis',(-4.40260854592734E-016,1.,1.22460635382238E-016));
#191=DIRECTION('center_axis',(-1.,-4.44379470857356E-016,0.));
#192=DIRECTION('ref_axis',(4.44379470857356E-016,-1.,0.));
#193=DIRECTION('center_axis',(-1.,-4.44379470857356E-016,0.));
#194=DIRECTION('ref_axis',(4.44379470857356E-016,-1.,0.));
#195=DIRECTION('center_axis',(-1.,-4.44379470857356E-016,0.));
#196=DIRECTION('ref_axis',(4.44379470857356E-016,-1.,0.));
#197=DIRECTION('center_axis',(-1.,-4.44379470857356E-016,0.));
#198=DIRECTION('ref_axis',(4.44379470857356E-016,-1.,0.));
#199=DIRECTION('center_axis',(-1.,-4.44379470857356E-016,0.));
#200=DIRECTION('ref_axis',(4.44379470857355E-016,-1.,0.));
#201=DIRECTION('center_axis',(1.,4.44379470857356E-016,0.));
#202=DIRECTION('ref_axis',(0.,0.,-1.));
#203=DIRECTION('center_axis',(-1.,-4.44379470857356E-016,0.));
#204=DIRECTION('ref_axis',(0.,0.,1.));
#205=CARTESIAN_POINT('',(0.,0.,0.));
#206=CARTESIAN_POINT('Origin',(9.,3.9994152377162E-015,0.));
#207=CARTESIAN_POINT('',(9.,-13.5,0.));
#208=CARTESIAN_POINT('Origin',(9.,3.9994152377162E-015,0.));
#209=CARTESIAN_POINT('',(6.,-16.5,-4.04120096761385E-015));
#210=CARTESIAN_POINT('Origin',(6.,2.66627682514413E-015,0.));
#211=CARTESIAN_POINT('Origin',(6.00000000000001,-21.25,0.));
#212=CARTESIAN_POINT('',(6.00000000000001,-27.,0.));
#213=CARTESIAN_POINT('Origin',(6.,2.66627682514413E-015,0.));
#214=CARTESIAN_POINT('Origin',(17.5,7.77664074000372E-015,0.));
#215=CARTESIAN_POINT('',(29.,-13.5,0.));
#216=CARTESIAN_POINT('Origin',(29.,1.28870046548633E-014,0.));
#217=CARTESIAN_POINT('Origin',(31.,1.3775763596578E-014,0.));
#218=CARTESIAN_POINT('',(31.,-11.,0.));
#219=CARTESIAN_POINT('Origin',(31.,1.3775763596578E-014,0.));
#220=CARTESIAN_POINT('',(29.,-13.,-3.18397651993818E-015));
#221=CARTESIAN_POINT('Origin',(29.,1.28870046548633E-014,0.));
#222=CARTESIAN_POINT('Origin',(82.,3.64391166103032E-014,0.));
#223=CARTESIAN_POINT('',(135.,-11.,0.));
#224=CARTESIAN_POINT('Origin',(135.,5.9991228565743E-014,0.));
#225=CARTESIAN_POINT('Origin',(29.,-12.25,0.));
#226=CARTESIAN_POINT('Origin',(4.,1.77751788342942E-015,0.));
#227=CARTESIAN_POINT('',(4.00000000000001,-29.,-7.10271685216979E-015));
#228=CARTESIAN_POINT('Origin',(4.,1.77751788342942E-015,0.));
#229=CARTESIAN_POINT('Origin',(2.99999999999999,1.33313841257206E-015,0.));
#230=CARTESIAN_POINT('',(3.60822483003176E-015,-29.,0.));
#231=CARTESIAN_POINT('Origin',(-9.27877982483155E-015,-4.12329926876055E-030,
0.));
#232=CARTESIAN_POINT('Origin',(67.5,2.99956142828715E-014,0.));
#233=CARTESIAN_POINT('',(135.,-9.49999999999994,0.));
#234=CARTESIAN_POINT('Origin',(135.,5.9991228565743E-014,0.));
#235=CARTESIAN_POINT('',(1.11022302462516E-015,-9.5,0.));
#236=CARTESIAN_POINT('Origin',(-3.11138194851972E-015,-1.38263426391832E-030,
0.));
#237=CARTESIAN_POINT('Origin',(135.,-10.2499999999999,0.));
#238=CARTESIAN_POINT('Origin',(2.35922392732846E-015,-19.25,0.));
#239=UNCERTAINTY_MEASURE_WITH_UNIT(LENGTH_MEASURE(0.01),#241,
'DISTANCE_ACCURACY_VALUE',
'Maximum model space distance between geometric entities at asserted c
onnectivities');
#240=(
GEOMETRIC_REPRESENTATION_CONTEXT(3)
GLOBAL_UNCERTAINTY_ASSIGNED_CONTEXT((#239))
GLOBAL_UNIT_ASSIGNED_CONTEXT((#241,#244,#242))
REPRESENTATION_CONTEXT('','3D')
);
#241=(
LENGTH_UNIT()
NAMED_UNIT(*)
SI_UNIT(.MILLI.,.METRE.)
);
#242=(
NAMED_UNIT(*)
SI_UNIT($,.STERADIAN.)
SOLID_ANGLE_UNIT()
);
#243=DIMENSIONAL_EXPONENTS(0.,0.,0.,0.,0.,0.,0.);
#244=(
CONVERSION_BASED_UNIT('degree',#246)
NAMED_UNIT(#243)
PLANE_ANGLE_UNIT()
);
#245=(
NAMED_UNIT(*)
PLANE_ANGLE_UNIT()
SI_UNIT($,.RADIAN.)
);
#246=PLANE_ANGLE_MEASURE_WITH_UNIT(PLANE_ANGLE_MEASURE(0.01745329252),#245);
#247=SHAPE_DEFINITION_REPRESENTATION(#248,#249);
#248=PRODUCT_DEFINITION_SHAPE('',$,#251);
#249=SHAPE_REPRESENTATION('',(#136),#240);
#250=PRODUCT_DEFINITION_CONTEXT('3D Mechanical Parts',#254,'design');
#251=PRODUCT_DEFINITION('36141','36141',#252,#250);
#252=PRODUCT_DEFINITION_FORMATION('',$,#256);
#253=APPLICATION_PROTOCOL_DEFINITION('international standard',
'automotive_design',2009,#254);
#254=APPLICATION_CONTEXT(
'Core Data for Automotive Mechanical Design Process');
#255=PRODUCT_CONTEXT('3D Mechanical Parts',#254,'mechanical');
#256=PRODUCT('36141','36141',$,(#255));
#257=PRESENTATION_STYLE_ASSIGNMENT((#258));
#258=SURFACE_STYLE_USAGE(.BOTH.,#259);
#259=SURFACE_SIDE_STYLE($,(#260));
#260=SURFACE_STYLE_FILL_AREA(#261);
#261=FILL_AREA_STYLE($,(#262));
#262=FILL_AREA_STYLE_COLOUR($,#263);
#263=COLOUR_RGB('',1.,1.,1.);
ENDSEC;
END-ISO-10303-21;
