ISO-10303-21;
HEADER;
FILE_DESCRIPTION (( 'STEP AP214' ),
    '1' );
FILE_NAME ('CR 2.5''''x2''''.STEP',
    '2026-01-13T08:30:44',
    ( '' ),
    ( '' ),
    'SwSTEP 2.0',
    'SolidWorks 2018',
    '' );
FILE_SCHEMA (( 'AUTOMOTIVE_DESIGN' ));
ENDSEC;

DATA;
#1 = EDGE_LOOP ( 'NONE', ( #36, #59 ) ) ;
#2 = AXIS2_PLACEMENT_3D ( 'NONE', #196, #197, #139 ) ;
#3 = CARTESIAN_POINT ( 'NONE',  ( 0.0000000000000000000, 25.39999999999999858, 3.686186865433533324E-15 ) ) ;
#4 = ORIENTED_EDGE ( 'NONE', *, *, #25, .T. ) ;
#5 = ORIENTED_EDGE ( 'NONE', *, *, #191, .F. ) ;
#6 = CIRCLE ( 'NONE', #175, 23.75000000000001066 ) ;
#7 = CIRCLE ( 'NONE', #198, 31.75000000000000000 ) ;
#8 = EDGE_CURVE ( 'NONE', #112, #189, #142, .T. ) ;
#9 = DIRECTION ( 'NONE',  ( -1.000000000000000000, 1.577021341797097314E-16, -0.0000000000000000000 ) ) ;
#10 = PRODUCT_DEFINITION_FORMATION_WITH_SPECIFIED_SOURCE ( 'ANY', '', #85, .NOT_KNOWN. ) ;
#11 = EDGE_LOOP ( 'NONE', ( #102, #99, #145, #109 ) ) ;
#12 = DIRECTION ( 'NONE',  ( -1.000000000000000000, 1.577021341797097314E-16, -0.0000000000000000000 ) ) ;
#13 = ORIENTED_EDGE ( 'NONE', *, *, #23, .T. ) ;
#14 = PRODUCT_RELATED_PRODUCT_CATEGORY ( 'part', '', ( #85 ) ) ;
#15 = DIRECTION ( 'NONE',  ( 0.0000000000000000000, 0.0000000000000000000, 1.000000000000000000 ) ) ;
#16 = ORIENTED_EDGE ( 'NONE', *, *, #44, .F. ) ;
#17 = DIRECTION ( 'NONE',  ( -1.577021341797097067E-16, -1.000000000000000000, 0.0000000000000000000 ) ) ;
#18 = DIRECTION ( 'NONE',  ( -1.000000000000000000, 1.577021341797097314E-16, -0.0000000000000000000 ) ) ;
#19 = DIRECTION ( 'NONE',  ( 1.577021341797097314E-16, 1.000000000000000000, 0.0000000000000000000 ) ) ;
#20 = ORIENTED_EDGE ( 'NONE', *, *, #74, .T. ) ;
#21 = AXIS2_PLACEMENT_3D ( 'NONE', #88, #9, #118 ) ;
#22 = DIRECTION ( 'NONE',  ( 0.0000000000000000000, -1.000000000000000000, 0.0000000000000000000 ) ) ;
#23 = EDGE_CURVE ( 'NONE', #111, #189, #33, .T. ) ;
#24 = ORIENTED_EDGE ( 'NONE', *, *, #54, .T. ) ;
#25 = EDGE_CURVE ( 'NONE', #112, #100, #204, .T. ) ;
#26 = UNCERTAINTY_MEASURE_WITH_UNIT (LENGTH_MEASURE( 1.000000000000000082E-05 ), #45, 'distance_accuracy_value', 'NONE');
#27 = CIRCLE ( 'NONE', #70, 30.10000000000000142 ) ;
#28 = FILL_AREA_STYLE_COLOUR ( '', #127 ) ;
#29 = FACE_OUTER_BOUND ( 'NONE', #103, .T. ) ;
#30 = ADVANCED_FACE ( 'NONE', ( #131 ), #190, .T. ) ;
#31 = SURFACE_SIDE_STYLE ('',( #57 ) ) ;
#32 = FACE_OUTER_BOUND ( 'NONE', #60, .T. ) ;
#33 = CIRCLE ( 'NONE', #56, 31.75000000000000000 ) ;
#34 = FILL_AREA_STYLE ('',( #90 ) ) ;
#35 = EDGE_CURVE ( 'NONE', #135, #208, #133, .T. ) ;
#36 = ORIENTED_EDGE ( 'NONE', *, *, #25, .F. ) ;
#37 = PRESENTATION_STYLE_ASSIGNMENT (( #122 ) ) ;
#38 = PRODUCT_DEFINITION_CONTEXT ( 'detailed design', #94, 'design' ) ;
#39 = CARTESIAN_POINT ( 'NONE',  ( 66.00000000000000000, -30.10000000000002274, 0.0000000000000000000 ) ) ;
#40 = VERTEX_POINT ( 'NONE', #136 ) ;
#41 = AXIS2_PLACEMENT_3D ( 'NONE', #110, #165, #19 ) ;
#42 = CARTESIAN_POINT ( 'NONE',  ( -5.007042760205783540E-15, 27.04999999999999716, 3.888253587292846476E-15 ) ) ;
#43 =( GEOMETRIC_REPRESENTATION_CONTEXT ( 3 ) GLOBAL_UNCERTAINTY_ASSIGNED_CONTEXT ( ( #117 ) ) GLOBAL_UNIT_ASSIGNED_CONTEXT ( ( #126, #63, #108 ) ) REPRESENTATION_CONTEXT ( 'NONE', 'WORKASPACE' ) );
#44 = EDGE_CURVE ( 'NONE', #208, #72, #153, .T. ) ;
#45 =( LENGTH_UNIT ( ) NAMED_UNIT ( * ) SI_UNIT ( .MILLI., .METRE. ) );
#46 = FACE_OUTER_BOUND ( 'NONE', #11, .T. ) ;
#47 = PRODUCT_CONTEXT ( 'NONE', #180, 'mechanical' ) ;
#48 = CARTESIAN_POINT ( 'NONE',  ( 66.00000000000000000, 20.69999999999999574, 0.0000000000000000000 ) ) ;
#49 = CARTESIAN_POINT ( 'NONE',  ( 66.00000000000000000, 20.69999999999999574, 3.110602869834278048E-15 ) ) ;
#50 = LINE ( 'NONE', #86, #152 ) ;
#51 = AXIS2_PLACEMENT_3D ( 'NONE', #80, #79, #202 ) ;
#52 = DIRECTION ( 'NONE',  ( -1.000000000000000000, 1.577021341797097314E-16, -0.0000000000000000000 ) ) ;
#53 = EDGE_LOOP ( 'NONE', ( #69, #97, #150, #188 ) ) ;
#54 = EDGE_CURVE ( 'NONE', #208, #135, #6, .T. ) ;
#55 = EDGE_LOOP ( 'NONE', ( #61, #5 ) ) ;
#56 = AXIS2_PLACEMENT_3D ( 'NONE', #130, #67, #184 ) ;
#57 = SURFACE_STYLE_FILL_AREA ( #34 ) ;
#58 = EDGE_LOOP ( 'NONE', ( #200, #24 ) ) ;
#59 = ORIENTED_EDGE ( 'NONE', *, *, #181, .F. ) ;
#60 = EDGE_LOOP ( 'NONE', ( #16, #177, #147, #20 ) ) ;
#61 = ORIENTED_EDGE ( 'NONE', *, *, #74, .F. ) ;
#62 = CARTESIAN_POINT ( 'NONE',  ( 66.00000000000000000, -28.45000000000002416, 0.0000000000000000000 ) ) ;
#63 =( NAMED_UNIT ( * ) PLANE_ANGLE_UNIT ( ) SI_UNIT ( $, .RADIAN. ) );
#64 = CARTESIAN_POINT ( 'NONE',  ( -4.746834238809263264E-15, -4.700000000000002842, 0.0000000000000000000 ) ) ;
#65 = ORIENTED_EDGE ( 'NONE', *, *, #154, .T. ) ;
#66 = ORIENTED_EDGE ( 'NONE', *, *, #8, .F. ) ;
#67 = DIRECTION ( 'NONE',  ( -1.000000000000000000, 1.577021341797097314E-16, -0.0000000000000000000 ) ) ;
#68 = SURFACE_STYLE_FILL_AREA ( #104 ) ;
#69 = ORIENTED_EDGE ( 'NONE', *, *, #154, .F. ) ;
#70 = AXIS2_PLACEMENT_3D ( 'NONE', #64, #18, #77 ) ;
#71 = DIRECTION ( 'NONE',  ( 0.0000000000000000000, -1.000000000000000000, 0.0000000000000000000 ) ) ;
#72 = VERTEX_POINT ( 'NONE', #3 ) ;
#73 = CARTESIAN_POINT ( 'NONE',  ( -4.746834238809263264E-15, -4.700000000000002842, 0.0000000000000000000 ) ) ;
#74 = EDGE_CURVE ( 'NONE', #40, #72, #84, .T. ) ;
#75 = AXIS2_PLACEMENT_3D ( 'NONE', #82, #52, #22 ) ;
#76 = DIRECTION ( 'NONE',  ( -1.000000000000000000, 1.577021341797097314E-16, -0.0000000000000000000 ) ) ;
#77 = DIRECTION ( 'NONE',  ( -1.577021341797097314E-16, -1.000000000000000000, 0.0000000000000000000 ) ) ;
#78 = DIRECTION ( 'NONE',  ( -1.000000000000000000, 1.577021341797097314E-16, -0.0000000000000000000 ) ) ;
#79 = DIRECTION ( 'NONE',  ( -1.000000000000000000, 1.577021341797097314E-16, -0.0000000000000000000 ) ) ;
#80 = CARTESIAN_POINT ( 'NONE',  ( 66.00000000000000000, -4.700000000000013500, 0.0000000000000000000 ) ) ;
#81 = AXIS2_PLACEMENT_3D ( 'NONE', #205, #96, #71 ) ;
#82 = CARTESIAN_POINT ( 'NONE',  ( 66.00000000000000000, -4.700000000000013500, 0.0000000000000000000 ) ) ;
#83 = CLOSED_SHELL ( 'NONE', ( #125, #129, #30, #195, #214, #161 ) ) ;
#84 = CIRCLE ( 'NONE', #106, 30.10000000000000142 ) ;
#85 = PRODUCT ( 'CR 2.5''''''''x2''''''''', 'CR 2.5''''''''x2''''''''', '', ( #47 ) ) ;
#86 = CARTESIAN_POINT ( 'NONE',  ( -9.493668477618526529E-15, -34.80000000000000426, 0.0000000000000000000 ) ) ;
#87 = PRESENTATION_STYLE_ASSIGNMENT (( #211 ) ) ;
#88 = CARTESIAN_POINT ( 'NONE',  ( 66.00000000000000000, -4.700000000000013500, 0.0000000000000000000 ) ) ;
#89 = UNCERTAINTY_MEASURE_WITH_UNIT (LENGTH_MEASURE( 1.000000000000000082E-05 ), #166, 'distance_accuracy_value', 'NONE');
#90 = FILL_AREA_STYLE_COLOUR ( '', #151 ) ;
#91 =( NAMED_UNIT ( * ) SI_UNIT ( $, .STERADIAN. ) SOLID_ANGLE_UNIT ( ) );
#92 = PRESENTATION_LAYER_ASSIGNMENT (  '', '', ( #212 ) ) ;
#93 = DIRECTION ( 'NONE',  ( -1.000000000000000000, 1.577021341797097314E-16, 0.0000000000000000000 ) ) ;
#94 = APPLICATION_CONTEXT ( 'automotive_design' ) ;
#95 = ADVANCED_BREP_SHAPE_REPRESENTATION ( 'CR 2.5''''''''x2''''''''', ( #134, #146 ), #159 ) ;
#96 = DIRECTION ( 'NONE',  ( -1.000000000000000000, 1.577021341797097314E-16, -0.0000000000000000000 ) ) ;
#97 = ORIENTED_EDGE ( 'NONE', *, *, #181, .T. ) ;
#98 = STYLED_ITEM ( 'NONE', ( #87 ), #95 ) ;
#99 = ORIENTED_EDGE ( 'NONE', *, *, #44, .T. ) ;
#100 = VERTEX_POINT ( 'NONE', #138 ) ;
#101 = AXIS2_PLACEMENT_3D ( 'NONE', #107, #76, #199 ) ;
#102 = ORIENTED_EDGE ( 'NONE', *, *, #54, .F. ) ;
#103 = EDGE_LOOP ( 'NONE', ( #156, #13 ) ) ;
#104 = FILL_AREA_STYLE ('',( #28 ) ) ;
#105 = DIRECTION ( 'NONE',  ( -1.000000000000000000, 1.577021341797097314E-16, -0.0000000000000000000 ) ) ;
#106 = AXIS2_PLACEMENT_3D ( 'NONE', #73, #12, #192 ) ;
#107 = CARTESIAN_POINT ( 'NONE',  ( -4.746834238809263264E-15, -4.700000000000002842, 0.0000000000000000000 ) ) ;
#108 =( NAMED_UNIT ( * ) SI_UNIT ( $, .STERADIAN. ) SOLID_ANGLE_UNIT ( ) );
#109 = ORIENTED_EDGE ( 'NONE', *, *, #113, .F. ) ;
#110 = CARTESIAN_POINT ( 'NONE',  ( 1.301042606982604335E-16, 27.04999999999999716, 0.0000000000000000000 ) ) ;
#111 = VERTEX_POINT ( 'NONE', #42 ) ;
#112 = VERTEX_POINT ( 'NONE', #171 ) ;
#113 = EDGE_CURVE ( 'NONE', #135, #40, #50, .T. ) ;
#114 = CONICAL_SURFACE ( 'NONE', #21, 25.40000000000000924, 0.09591688799771502794 ) ;
#115 = MECHANICAL_DESIGN_GEOMETRIC_PRESENTATION_REPRESENTATION (  '', ( #212 ), #132 ) ;
#116 = VECTOR ( 'NONE', #173, 1000.000000000000114 ) ;
#117 = UNCERTAINTY_MEASURE_WITH_UNIT (LENGTH_MEASURE( 1.000000000000000082E-05 ), #126, 'distance_accuracy_value', 'NONE');
#118 = DIRECTION ( 'NONE',  ( 0.0000000000000000000, -1.000000000000000000, 0.0000000000000000000 ) ) ;
#119 = FACE_BOUND ( 'NONE', #55, .T. ) ;
#120 = CARTESIAN_POINT ( 'NONE',  ( -5.007042760205783540E-15, -36.45000000000000284, 0.0000000000000000000 ) ) ;
#121 = DIRECTION ( 'NONE',  ( 0.0000000000000000000, -1.000000000000000000, 0.0000000000000000000 ) ) ;
#122 = SURFACE_STYLE_USAGE ( .BOTH. , #176 ) ;
#123 =( NAMED_UNIT ( * ) SI_UNIT ( $, .STERADIAN. ) SOLID_ANGLE_UNIT ( ) );
#124 = PLANE ( 'NONE',  #170 ) ;
#125 = ADVANCED_FACE ( 'NONE', ( #46 ), #201, .F. ) ;
#126 =( LENGTH_UNIT ( ) NAMED_UNIT ( * ) SI_UNIT ( .MILLI., .METRE. ) );
#127 = COLOUR_RGB ( '',0.7921568627450980005, 0.8196078431372548767, 0.9333333333333333481 ) ;
#128 = CARTESIAN_POINT ( 'NONE',  ( 66.00000000000000000, 19.04999999999999716, 3.297361506704249307E-15 ) ) ;
#129 = ADVANCED_FACE ( 'NONE', ( #148 ), #114, .T. ) ;
#130 = CARTESIAN_POINT ( 'NONE',  ( -5.007042760205783540E-15, -4.700000000000002842, 0.0000000000000000000 ) ) ;
#131 = FACE_OUTER_BOUND ( 'NONE', #53, .T. ) ;
#132 =( GEOMETRIC_REPRESENTATION_CONTEXT ( 3 ) GLOBAL_UNCERTAINTY_ASSIGNED_CONTEXT ( ( #26 ) ) GLOBAL_UNIT_ASSIGNED_CONTEXT ( ( #45, #158, #123 ) ) REPRESENTATION_CONTEXT ( 'NONE', 'WORKASPACE' ) );
#133 = CIRCLE ( 'NONE', #75, 23.75000000000001066 ) ;
#134 = MANIFOLD_SOLID_BREP ( 'Revolve1', #83 ) ;
#135 = VERTEX_POINT ( 'NONE', #62 ) ;
#136 = CARTESIAN_POINT ( 'NONE',  ( -9.493668477618526529E-15, -34.80000000000000426, 0.0000000000000000000 ) ) ;
#137 = PLANE ( 'NONE',  #41 ) ;
#138 = CARTESIAN_POINT ( 'NONE',  ( 66.00000000000000000, 20.69999999999999574, 3.499428228563562065E-15 ) ) ;
#139 = DIRECTION ( 'NONE',  ( 0.0000000000000000000, -1.000000000000000000, 0.0000000000000000000 ) ) ;
#140 = CIRCLE ( 'NONE', #2, 25.40000000000000924 ) ;
#141 = CARTESIAN_POINT ( 'NONE',  ( -5.007042760205783540E-15, -4.700000000000002842, 0.0000000000000000000 ) ) ;
#142 = LINE ( 'NONE', #39, #182 ) ;
#143 = APPLICATION_PROTOCOL_DEFINITION ( 'draft international standard', 'automotive_design', 1998, #180 ) ;
#144 = EDGE_LOOP ( 'NONE', ( #4, #65, #203, #66 ) ) ;
#145 = ORIENTED_EDGE ( 'NONE', *, *, #191, .T. ) ;
#146 = AXIS2_PLACEMENT_3D ( 'NONE', #213, #15, #167 ) ;
#147 = ORIENTED_EDGE ( 'NONE', *, *, #113, .T. ) ;
#148 = FACE_OUTER_BOUND ( 'NONE', #144, .T. ) ;
#149 = PRESENTATION_LAYER_ASSIGNMENT (  '', '', ( #98 ) ) ;
#150 = ORIENTED_EDGE ( 'NONE', *, *, #8, .T. ) ;
#151 = COLOUR_RGB ( '',0.7921568627450980005, 0.8196078431372548767, 0.9333333333333333481 ) ;
#152 = VECTOR ( 'NONE', #157, 1000.000000000000114 ) ;
#153 = LINE ( 'NONE', #206, #116 ) ;
#154 = EDGE_CURVE ( 'NONE', #100, #111, #169, .T. ) ;
#155 = DIRECTION ( 'NONE',  ( -1.000000000000000000, 1.577021341797097314E-16, -0.0000000000000000000 ) ) ;
#156 = ORIENTED_EDGE ( 'NONE', *, *, #207, .T. ) ;
#157 = DIRECTION ( 'NONE',  ( -0.9954035009216084529, -0.09576988228563930450, 0.0000000000000000000 ) ) ;
#158 =( NAMED_UNIT ( * ) PLANE_ANGLE_UNIT ( ) SI_UNIT ( $, .RADIAN. ) );
#159 =( GEOMETRIC_REPRESENTATION_CONTEXT ( 3 ) GLOBAL_UNCERTAINTY_ASSIGNED_CONTEXT ( ( #89 ) ) GLOBAL_UNIT_ASSIGNED_CONTEXT ( ( #166, #164, #91 ) ) REPRESENTATION_CONTEXT ( 'NONE', 'WORKASPACE' ) );
#160 = FACE_BOUND ( 'NONE', #58, .T. ) ;
#161 = ADVANCED_FACE ( 'NONE', ( #119, #29 ), #137, .F. ) ;
#162 = APPLICATION_PROTOCOL_DEFINITION ( 'draft international standard', 'automotive_design', 1998, #94 ) ;
#163 = VECTOR ( 'NONE', #179, 1000.000000000000114 ) ;
#164 =( NAMED_UNIT ( * ) PLANE_ANGLE_UNIT ( ) SI_UNIT ( $, .RADIAN. ) );
#165 = DIRECTION ( 'NONE',  ( 1.000000000000000000, -1.577021341797097314E-16, 0.0000000000000000000 ) ) ;
#166 =( LENGTH_UNIT ( ) NAMED_UNIT ( * ) SI_UNIT ( .MILLI., .METRE. ) );
#167 = DIRECTION ( 'NONE',  ( 1.000000000000000000, 0.0000000000000000000, 0.0000000000000000000 ) ) ;
#168 = CONICAL_SURFACE ( 'NONE', #101, 30.10000000000000142, 0.09591688799771502794 ) ;
#169 = LINE ( 'NONE', #49, #163 ) ;
#170 = AXIS2_PLACEMENT_3D ( 'NONE', #48, #93, #178 ) ;
#171 = CARTESIAN_POINT ( 'NONE',  ( 66.00000000000000000, -30.10000000000002274, 0.0000000000000000000 ) ) ;
#172 = PRODUCT_DEFINITION ( 'UNKNOWN', '', #10, #38 ) ;
#173 = DIRECTION ( 'NONE',  ( -0.9954035009216084529, 0.09576988228563960981, 1.172842797958271605E-17 ) ) ;
#174 = CARTESIAN_POINT ( 'NONE',  ( 66.00000000000000000, -4.700000000000013500, 0.0000000000000000000 ) ) ;
#175 = AXIS2_PLACEMENT_3D ( 'NONE', #174, #105, #121 ) ;
#176 = SURFACE_SIDE_STYLE ('',( #68 ) ) ;
#177 = ORIENTED_EDGE ( 'NONE', *, *, #35, .F. ) ;
#178 = DIRECTION ( 'NONE',  ( -1.577021341797097314E-16, -1.000000000000000000, 0.0000000000000000000 ) ) ;
#179 = DIRECTION ( 'NONE',  ( -0.9954035009216084529, 0.09576988228563960981, 1.172842797958271605E-17 ) ) ;
#180 = APPLICATION_CONTEXT ( 'automotive_design' ) ;
#181 = EDGE_CURVE ( 'NONE', #100, #112, #140, .T. ) ;
#182 = VECTOR ( 'NONE', #183, 1000.000000000000114 ) ;
#183 = DIRECTION ( 'NONE',  ( -0.9954035009216084529, -0.09576988228563930450, 0.0000000000000000000 ) ) ;
#184 = DIRECTION ( 'NONE',  ( -1.577021341797097067E-16, -1.000000000000000000, 0.0000000000000000000 ) ) ;
#185 = SHAPE_DEFINITION_REPRESENTATION ( #194, #95 ) ;
#186 = MECHANICAL_DESIGN_GEOMETRIC_PRESENTATION_REPRESENTATION (  '', ( #98 ), #43 ) ;
#187 = AXIS2_PLACEMENT_3D ( 'NONE', #210, #155, #193 ) ;
#188 = ORIENTED_EDGE ( 'NONE', *, *, #23, .F. ) ;
#189 = VERTEX_POINT ( 'NONE', #120 ) ;
#190 = CONICAL_SURFACE ( 'NONE', #51, 25.40000000000000924, 0.09591688799771502794 ) ;
#191 = EDGE_CURVE ( 'NONE', #72, #40, #27, .T. ) ;
#192 = DIRECTION ( 'NONE',  ( -1.577021341797097314E-16, -1.000000000000000000, 0.0000000000000000000 ) ) ;
#193 = DIRECTION ( 'NONE',  ( -1.577021341797097314E-16, -1.000000000000000000, 0.0000000000000000000 ) ) ;
#194 = PRODUCT_DEFINITION_SHAPE ( 'NONE', 'NONE',  #172 ) ;
#195 = ADVANCED_FACE ( 'NONE', ( #209, #160 ), #124, .F. ) ;
#196 = CARTESIAN_POINT ( 'NONE',  ( 66.00000000000000000, -4.700000000000013500, 0.0000000000000000000 ) ) ;
#197 = DIRECTION ( 'NONE',  ( -1.000000000000000000, 1.577021341797097314E-16, -0.0000000000000000000 ) ) ;
#198 = AXIS2_PLACEMENT_3D ( 'NONE', #141, #78, #17 ) ;
#199 = DIRECTION ( 'NONE',  ( -1.577021341797097314E-16, -1.000000000000000000, 0.0000000000000000000 ) ) ;
#200 = ORIENTED_EDGE ( 'NONE', *, *, #35, .T. ) ;
#201 = CONICAL_SURFACE ( 'NONE', #187, 30.10000000000000142, 0.09591688799771502794 ) ;
#202 = DIRECTION ( 'NONE',  ( 0.0000000000000000000, -1.000000000000000000, 0.0000000000000000000 ) ) ;
#203 = ORIENTED_EDGE ( 'NONE', *, *, #207, .F. ) ;
#204 = CIRCLE ( 'NONE', #81, 25.40000000000000924 ) ;
#205 = CARTESIAN_POINT ( 'NONE',  ( 66.00000000000000000, -4.700000000000013500, 0.0000000000000000000 ) ) ;
#206 = CARTESIAN_POINT ( 'NONE',  ( 0.0000000000000000000, 25.39999999999999858, 3.686186865433533324E-15 ) ) ;
#207 = EDGE_CURVE ( 'NONE', #189, #111, #7, .T. ) ;
#208 = VERTEX_POINT ( 'NONE', #128 ) ;
#209 = FACE_OUTER_BOUND ( 'NONE', #1, .T. ) ;
#210 = CARTESIAN_POINT ( 'NONE',  ( -4.746834238809263264E-15, -4.700000000000002842, 0.0000000000000000000 ) ) ;
#211 = SURFACE_STYLE_USAGE ( .BOTH. , #31 ) ;
#212 = STYLED_ITEM ( 'NONE', ( #37 ), #134 ) ;
#213 = CARTESIAN_POINT ( 'NONE',  ( 0.0000000000000000000, 0.0000000000000000000, 0.0000000000000000000 ) ) ;
#214 = ADVANCED_FACE ( 'NONE', ( #32 ), #168, .F. ) ;
ENDSEC;
END-ISO-10303-21;
