ISO-10303-21;
HEADER;
/****************************************************************
 * Generated by software with PDE/Lib inside                    *
 * PDElib Version v51a, created Thu 12/14/2006                  *
 * International Technegroup Inc. (www.iti-oh.com)              *
 ****************************************************************/
FILE_DESCRIPTION((''),'2;1');
FILE_NAME('T:\\Arbeitspl\S\dtze\\Aushilfe\\KPeters\\3D\\Steps 08_10\\7030\\70301212X.stp','2010-09-07T08:29:14',('thilbrands'),(''),'Autodesk Inventor 2008','Autodesk Inventor 2008','');
FILE_SCHEMA(('AUTOMOTIVE_DESIGN { 1 0 10303 214 1 1 1 1 }'));
ENDSEC;
DATA;
#5=APPLICATION_CONTEXT('automotive design');
#6=APPLICATION_PROTOCOL_DEFINITION('International Standard','automotive_design',2001,#5);
#7=PRODUCT_CONTEXT('',#5,'mechanical');
#8=PRODUCT('703000251','703000251',$,(#7));
#9=PRODUCT_RELATED_PRODUCT_CATEGORY('part',$,(#8));
#10=PRODUCT_DEFINITION_FORMATION('',$,#8);
#11=PRODUCT_DEFINITION_CONTEXT('part definition',#5,'design');
#12=PRODUCT_DEFINITION('',$,#10,#11);
#18=(NAMED_UNIT(*)PLANE_ANGLE_UNIT()SI_UNIT($,.RADIAN.));
#19=DIMENSIONAL_EXPONENTS(0.0,0.0,0.0,0.0,0.0,0.0,0.0);
#20=PLANE_ANGLE_MEASURE_WITH_UNIT(PLANE_ANGLE_MEASURE(0.017453292500000),#18);
#24=(CONVERSION_BASED_UNIT('DEGREE',#20)NAMED_UNIT(#19)PLANE_ANGLE_UNIT());
#28=(NAMED_UNIT(*)SI_UNIT($,.STERADIAN.)SOLID_ANGLE_UNIT());
#32=(LENGTH_UNIT()NAMED_UNIT(*)SI_UNIT(.MILLI.,.METRE.));
#34=UNCERTAINTY_MEASURE_WITH_UNIT(LENGTH_MEASURE(0.010000000000000),#32,'DISTANCE_ACCURACY_VALUE','');
#36=(GEOMETRIC_REPRESENTATION_CONTEXT(3)GLOBAL_UNCERTAINTY_ASSIGNED_CONTEXT((#34))GLOBAL_UNIT_ASSIGNED_CONTEXT((#24,#28,#32))REPRESENTATION_CONTEXT('None','None'));
#37=AXIS2_PLACEMENT_3D('',#38,#39,#40);
#38=CARTESIAN_POINT('',(0.0,0.0,0.0));
#39=DIRECTION('',(0.0,0.0,1.0));
#40=DIRECTION('',(1.0,0.0,0.0));
#41=SHAPE_REPRESENTATION('',(#37),#36);
#42=PRODUCT_DEFINITION_SHAPE('','',#12);
#43=SHAPE_DEFINITION_REPRESENTATION(#42,#41);
#49=(NAMED_UNIT(*)PLANE_ANGLE_UNIT()SI_UNIT($,.RADIAN.));
#50=DIMENSIONAL_EXPONENTS(0.0,0.0,0.0,0.0,0.0,0.0,0.0);
#51=PLANE_ANGLE_MEASURE_WITH_UNIT(PLANE_ANGLE_MEASURE(0.017453292500000),#49);
#55=(CONVERSION_BASED_UNIT('DEGREE',#51)NAMED_UNIT(#50)PLANE_ANGLE_UNIT());
#59=(NAMED_UNIT(*)SI_UNIT($,.STERADIAN.)SOLID_ANGLE_UNIT());
#63=(LENGTH_UNIT()NAMED_UNIT(*)SI_UNIT(.MILLI.,.METRE.));
#65=UNCERTAINTY_MEASURE_WITH_UNIT(LENGTH_MEASURE(0.000001000000000),#63,'DISTANCE_ACCURACY_VALUE','');
#67=(GEOMETRIC_REPRESENTATION_CONTEXT(3)GLOBAL_UNCERTAINTY_ASSIGNED_CONTEXT((#65))GLOBAL_UNIT_ASSIGNED_CONTEXT((#55,#59,#63))REPRESENTATION_CONTEXT('','3D'));
#68=CARTESIAN_POINT('',(-12.135432471266295,-2.220446E-013,0.0));
#69=DIRECTION('',(1.0,1.672969E-014,0.0));
#70=DIRECTION('',(0.0,0.0,-1.0));
#71=AXIS2_PLACEMENT_3D('',#68,#69,#70);
#72=TOROIDAL_SURFACE('',#71,25.400000000000190,6.349999999999999);
#73=CARTESIAN_POINT('',(-6.411817743091850,28.150042625745915,0.0));
#74=VERTEX_POINT('',#73);
#75=CARTESIAN_POINT('',(-6.411817743091380,-1.259145E-013,0.0));
#76=DIRECTION('',(1.0,0.0,0.0));
#77=DIRECTION('',(0.0,1.0,0.0));
#78=AXIS2_PLACEMENT_3D('',#75,#76,#77);
#79=CIRCLE('',#78,28.150042625746039);
#80=EDGE_CURVE('',#74,#74,#79,.T.);
#81=ORIENTED_EDGE('',*,*,#80,.F.);
#82=EDGE_LOOP('',(#81));
#83=FACE_OUTER_BOUND('',#82,.T.);
#84=CARTESIAN_POINT('',(-12.135432471266721,31.749999999999972,0.0));
#85=VERTEX_POINT('',#84);
#86=CARTESIAN_POINT('',(-12.135432471266190,-2.216687E-013,0.0));
#87=DIRECTION('',(1.0,0.0,0.0));
#88=DIRECTION('',(0.0,1.0,0.0));
#89=AXIS2_PLACEMENT_3D('',#86,#87,#88);
#90=CIRCLE('',#89,31.750000000000192);
#91=EDGE_CURVE('',#85,#85,#90,.T.);
#92=ORIENTED_EDGE('',*,*,#91,.T.);
#93=EDGE_LOOP('',(#92));
#94=FACE_BOUND('',#93,.T.);
#95=ADVANCED_FACE('',(#83,#94),#72,.T.);
#96=CARTESIAN_POINT('',(-65.0,-3.058707E-014,0.0));
#97=DIRECTION('',(0.0,0.0,1.0));
#98=DIRECTION('',(1.0,0.0,0.0));
#99=AXIS2_PLACEMENT_3D('',#96,#97,#98);
#100=SPHERICAL_SURFACE('',#99,65.000000000001080);
#101=ORIENTED_EDGE('',*,*,#80,.T.);
#102=EDGE_LOOP('',(#101));
#103=FACE_OUTER_BOUND('',#102,.T.);
#104=ADVANCED_FACE('',(#103),#100,.T.);
#105=CARTESIAN_POINT('',(-13.409818021132409,-24.787692087919151,-27.500426257459626));
#106=CARTESIAN_POINT('',(-1.499999999999211,-30.510038678049941,0.0));
#107=CARTESIAN_POINT('',(-13.409818021132409,-24.787692087919151,27.500426257459626));
#108=CARTESIAN_POINT('',(-1.499999999998671,-1.421085E-013,-27.500426257459626));
#109=CARTESIAN_POINT('',(13.159251340726563,-1.669775E-013,0.0));
#110=CARTESIAN_POINT('',(-1.499999999998671,-1.421085E-013,27.500426257459626));
#111=CARTESIAN_POINT('',(-13.409818021132324,24.787692087918916,-27.500426257459626));
#112=CARTESIAN_POINT('',(-1.499999999999112,30.510038678049668,0.0));
#113=CARTESIAN_POINT('',(-13.409818021132324,24.787692087918916,27.500426257459626));
#121=(BOUNDED_SURFACE()B_SPLINE_SURFACE(2,2,((#105,#108,#111),(#106,#109,#112),(#107,#110,#113)),.UNSPECIFIED.,.F.,.F.,.U.)B_SPLINE_SURFACE_WITH_KNOTS((3,3),(3,3),(-0.447904372704195,0.447904372704195),(0.0,0.895808745408405),.UNSPECIFIED.)GEOMETRIC_REPRESENTATION_ITEM()RATIONAL_B_SPLINE_SURFACE(((1.0,0.901356650106278,1.0),(0.901356650106283,0.812443810690816,0.901356650106283),(1.0,0.901356650106278,1.0)))REPRESENTATION_ITEM('')SURFACE());
#122=CARTESIAN_POINT('',(-7.763852718251263,27.500426257459477,0.0));
#123=VERTEX_POINT('',#122);
#124=CARTESIAN_POINT('',(-7.763852718250803,-1.485336E-013,0.0));
#125=DIRECTION('',(1.0,0.0,0.0));
#126=DIRECTION('',(0.0,1.0,0.0));
#127=AXIS2_PLACEMENT_3D('',#124,#125,#126);
#128=CIRCLE('',#127,27.500426257459623);
#129=EDGE_CURVE('',#123,#123,#128,.T.);
#130=ORIENTED_EDGE('',*,*,#129,.F.);
#131=EDGE_LOOP('',(#130));
#132=FACE_OUTER_BOUND('',#131,.T.);
#133=ADVANCED_FACE('',(#132),#121,.T.);
#134=CARTESIAN_POINT('',(-12.135432471267226,-2.257490E-013,30.250000000000195));
#135=CARTESIAN_POINT('',(-7.285432471266290,-1.446101E-013,30.250000000001126));
#136=CARTESIAN_POINT('',(-7.285432471266290,-1.440161E-013,25.400000000000190));
#137=CARTESIAN_POINT('',(-7.285432471266290,-1.434222E-013,20.549999999999255));
#138=CARTESIAN_POINT('',(-12.135432471267224,-2.245612E-013,20.550000000000185));
#139=CARTESIAN_POINT('',(-12.135432471266720,-30.250000000000419,30.250000000000188));
#140=CARTESIAN_POINT('',(-7.285432471265784,-30.250000000001265,30.250000000001116));
#141=CARTESIAN_POINT('',(-7.285432471265867,-25.400000000000329,25.400000000000180));
#142=CARTESIAN_POINT('',(-7.285432471265946,-20.549999999999397,20.549999999999248));
#143=CARTESIAN_POINT('',(-12.135432471266878,-20.550000000000409,20.550000000000178));
#144=CARTESIAN_POINT('',(-12.135432471266720,-30.250000000000419,-3.704434E-015));
#145=CARTESIAN_POINT('',(-7.285432471265784,-30.250000000001265,-3.704434E-015));
#146=CARTESIAN_POINT('',(-7.285432471265866,-25.400000000000333,-3.110500E-015));
#147=CARTESIAN_POINT('',(-7.285432471265946,-20.549999999999397,-2.516566E-015));
#148=CARTESIAN_POINT('',(-12.135432471266880,-20.550000000000409,-2.516566E-015));
#149=CARTESIAN_POINT('',(-12.135432471266720,-30.250000000000409,-30.250000000000192));
#150=CARTESIAN_POINT('',(-7.285432471265784,-30.250000000001258,-30.250000000001123));
#151=CARTESIAN_POINT('',(-7.285432471265867,-25.400000000000318,-25.400000000000190));
#152=CARTESIAN_POINT('',(-7.285432471265946,-20.549999999999390,-20.549999999999255));
#153=CARTESIAN_POINT('',(-12.135432471266878,-20.550000000000402,-20.550000000000185));
#154=CARTESIAN_POINT('',(-12.135432471267226,-2.183402E-013,-30.250000000000195));
#155=CARTESIAN_POINT('',(-7.285432471266290,-1.372012E-013,-30.250000000001126));
#156=CARTESIAN_POINT('',(-7.285432471266290,-1.377951E-013,-25.400000000000190));
#157=CARTESIAN_POINT('',(-7.285432471266290,-1.383891E-013,-20.549999999999255));
#158=CARTESIAN_POINT('',(-12.135432471267224,-2.195280E-013,-20.550000000000185));
#159=CARTESIAN_POINT('',(-12.135432471267732,30.249999999999964,-30.250000000000188));
#160=CARTESIAN_POINT('',(-7.285432471266796,30.250000000000981,-30.250000000001116));
#161=CARTESIAN_POINT('',(-7.285432471266716,25.400000000000045,-25.400000000000180));
#162=CARTESIAN_POINT('',(-7.285432471266634,20.549999999999113,-20.549999999999248));
#163=CARTESIAN_POINT('',(-12.135432471267569,20.549999999999962,-20.550000000000178));
#164=CARTESIAN_POINT('',(-12.135432471267732,30.249999999999972,3.704434E-015));
#165=CARTESIAN_POINT('',(-7.285432471266796,30.250000000000984,3.704434E-015));
#166=CARTESIAN_POINT('',(-7.285432471266715,25.400000000000048,3.110500E-015));
#167=CARTESIAN_POINT('',(-7.285432471266634,20.549999999999113,2.516566E-015));
#168=CARTESIAN_POINT('',(-12.135432471267569,20.549999999999962,2.516566E-015));
#169=CARTESIAN_POINT('',(-12.135432471267732,30.249999999999961,30.250000000000192));
#170=CARTESIAN_POINT('',(-7.285432471266796,30.250000000000973,30.250000000001123));
#171=CARTESIAN_POINT('',(-7.285432471266716,25.400000000000038,25.400000000000190));
#172=CARTESIAN_POINT('',(-7.285432471266634,20.549999999999105,20.549999999999255));
#173=CARTESIAN_POINT('',(-12.135432471267569,20.549999999999955,20.550000000000185));
#174=CARTESIAN_POINT('',(-12.135432471267226,-2.257490E-013,30.250000000000195));
#175=CARTESIAN_POINT('',(-7.285432471266290,-1.446101E-013,30.250000000001126));
#176=CARTESIAN_POINT('',(-7.285432471266290,-1.440161E-013,25.400000000000190));
#177=CARTESIAN_POINT('',(-7.285432471266290,-1.434222E-013,20.549999999999255));
#178=CARTESIAN_POINT('',(-12.135432471267224,-2.245612E-013,20.550000000000185));
#186=(BOUNDED_SURFACE()B_SPLINE_SURFACE(2,2,((#134,#139,#144,#149,#154,#159,#164,#169,#174),(#135,#140,#145,#150,#155,#160,#165,#170,#175),(#136,#141,#146,#151,#156,#161,#166,#171,#176),(#137,#142,#147,#152,#157,#162,#167,#172,#177),(#138,#143,#148,#153,#158,#163,#168,#173,#178)),.UNSPECIFIED.,.F.,.T.,.U.)B_SPLINE_SURFACE_WITH_KNOTS((3,2,3),(3,2,2,2,3),(-1.918809E-013,1.570796326794897,3.141592653589985),(0.0,1.570796326794897,3.141592653589793,4.712388980384690,6.283185307179586),.UNSPECIFIED.)GEOMETRIC_REPRESENTATION_ITEM()RATIONAL_B_SPLINE_SURFACE(((1.0,0.707106781186548,1.0,0.707106781186548,1.0,0.707106781186548,1.0,0.707106781186548,1.0),(0.707106781186480,0.499999999999952,0.707106781186480,0.499999999999952,0.707106781186480,0.499999999999952,0.707106781186480,0.499999999999952,0.707106781186480),(1.0,0.707106781186548,1.0,0.707106781186548,1.0,0.707106781186548,1.0,0.707106781186548,1.0),(0.707106781186480,0.499999999999952,0.707106781186480,0.499999999999952,0.707106781186480,0.499999999999952,0.707106781186480,0.499999999999952,0.707106781186480),(1.0,0.707106781186548,1.0,0.707106781186548,1.0,0.707106781186548,1.0,0.707106781186548,1.0)))REPRESENTATION_ITEM('')SURFACE());
#187=CARTESIAN_POINT('',(-12.135432471266721,30.249999999999979,0.0));
#188=VERTEX_POINT('',#187);
#189=CARTESIAN_POINT('',(-12.135432471266213,-2.216687E-013,0.0));
#190=DIRECTION('',(1.0,0.0,0.0));
#191=DIRECTION('',(0.0,1.0,0.0));
#192=AXIS2_PLACEMENT_3D('',#189,#190,#191);
#193=CIRCLE('',#192,30.250000000000199);
#194=EDGE_CURVE('',#188,#188,#193,.T.);
#195=ORIENTED_EDGE('',*,*,#194,.F.);
#196=EDGE_LOOP('',(#195));
#197=FACE_OUTER_BOUND('',#196,.T.);
#198=ORIENTED_EDGE('',*,*,#129,.T.);
#199=EDGE_LOOP('',(#198));
#200=FACE_BOUND('',#199,.T.);
#201=ADVANCED_FACE('',(#197,#200),#186,.T.);
#202=CARTESIAN_POINT('',(-15.067716235632853,-2.707249E-013,0.0));
#203=DIRECTION('',(1.0,1.672969E-014,0.0));
#204=DIRECTION('',(0.0,1.0,0.0));
#205=AXIS2_PLACEMENT_3D('',#202,#203,#204);
#206=CYLINDRICAL_SURFACE('',#205,30.250000000000249);
#207=CARTESIAN_POINT('',(-18.0,30.249999999999979,0.0));
#208=VERTEX_POINT('',#207);
#209=CARTESIAN_POINT('',(-17.999999999999492,-3.197811E-013,0.0));
#210=DIRECTION('',(1.0,0.0,0.0));
#211=DIRECTION('',(0.0,1.0,0.0));
#212=AXIS2_PLACEMENT_3D('',#209,#210,#211);
#213=CIRCLE('',#212,30.250000000000298);
#214=EDGE_CURVE('',#208,#208,#213,.T.);
#215=ORIENTED_EDGE('',*,*,#214,.F.);
#216=EDGE_LOOP('',(#215));
#217=FACE_OUTER_BOUND('',#216,.T.);
#218=ORIENTED_EDGE('',*,*,#194,.T.);
#219=EDGE_LOOP('',(#218));
#220=FACE_BOUND('',#219,.T.);
#221=ADVANCED_FACE('',(#217,#220),#206,.F.);
#222=CARTESIAN_POINT('',(-18.0,30.999999999999975,0.0));
#223=DIRECTION('',(-1.0,0.0,0.0));
#224=DIRECTION('',(0.0,0.0,1.0));
#225=AXIS2_PLACEMENT_3D('',#222,#223,#224);
#226=PLANE('',#225);
#227=CARTESIAN_POINT('',(-18.000000000000004,31.749999999999972,0.0));
#228=VERTEX_POINT('',#227);
#229=CARTESIAN_POINT('',(-17.999999999999471,-3.197811E-013,0.0));
#230=DIRECTION('',(1.0,0.0,0.0));
#231=DIRECTION('',(0.0,1.0,0.0));
#232=AXIS2_PLACEMENT_3D('',#229,#230,#231);
#233=CIRCLE('',#232,31.750000000000291);
#234=EDGE_CURVE('',#228,#228,#233,.T.);
#235=ORIENTED_EDGE('',*,*,#234,.F.);
#236=EDGE_LOOP('',(#235));
#237=FACE_OUTER_BOUND('',#236,.T.);
#238=ORIENTED_EDGE('',*,*,#214,.T.);
#239=EDGE_LOOP('',(#238));
#240=FACE_BOUND('',#239,.T.);
#241=ADVANCED_FACE('',(#237,#240),#226,.T.);
#242=CARTESIAN_POINT('',(-15.067716235632831,-2.707249E-013,0.0));
#243=DIRECTION('',(1.0,1.672969E-014,0.0));
#244=DIRECTION('',(0.0,1.0,0.0));
#245=AXIS2_PLACEMENT_3D('',#242,#243,#244);
#246=CYLINDRICAL_SURFACE('',#245,31.750000000000242);
#247=ORIENTED_EDGE('',*,*,#91,.F.);
#248=EDGE_LOOP('',(#247));
#249=FACE_OUTER_BOUND('',#248,.T.);
#250=ORIENTED_EDGE('',*,*,#234,.T.);
#251=EDGE_LOOP('',(#250));
#252=FACE_BOUND('',#251,.T.);
#253=ADVANCED_FACE('',(#249,#252),#246,.T.);
#254=CLOSED_SHELL('',(#95,#104,#133,#201,#221,#241,#253));
#255=MANIFOLD_SOLID_BREP('',#254);
#256=COLOUR_RGB('Metall - Stahl',0.639216005802155,0.639216005802155,0.686275005340576);
#257=FILL_AREA_STYLE_COLOUR('Metall - Stahl',#256);
#258=FILL_AREA_STYLE('Metall - Stahl',(#257));
#259=SURFACE_STYLE_FILL_AREA(#258);
#260=SURFACE_SIDE_STYLE('Metall - Stahl',(#259));
#261=SURFACE_STYLE_USAGE(.BOTH.,#260);
#262=PRESENTATION_STYLE_ASSIGNMENT((#261));
#263=STYLED_ITEM('',(#262),#255);
#264=MECHANICAL_DESIGN_GEOMETRIC_PRESENTATION_REPRESENTATION('',(#263),#36);
#265=ADVANCED_BREP_SHAPE_REPRESENTATION('ABSR',(#255),#36);
#266=SHAPE_REPRESENTATION_RELATIONSHIP('SRR','None',#265,#41);
ENDSEC;
END-ISO-10303-21;
