ISO-10303-21;
HEADER;
/* Generated by software containing ST-Developer
 * from STEP Tools, Inc. (www.steptools.com) 
 */

FILE_DESCRIPTION(
/* description */ (''),
/* implementation_level */ '2;1');

FILE_NAME(
/* name */ '49102.stp',
/* time_stamp */ '2023-09-08T11:40:02+02:00',
/* author */ ('JANAN'),
/* organization */ (''),
/* preprocessor_version */ 'ST-DEVELOPER v19.2',
/* originating_system */ 'Autodesk Inventor 2023',
/* authorisation */ '');

FILE_SCHEMA (('AUTOMOTIVE_DESIGN { 1 0 10303 214 3 1 1 }'));
ENDSEC;

DATA;
#10=MECHANICAL_DESIGN_GEOMETRIC_PRESENTATION_REPRESENTATION('',(#277,#278,
#279,#280,#281,#282,#283,#284,#285,#286,#287,#288,#289,#290,#291,#292,#293,
#294),#573);
#11=SHAPE_REPRESENTATION_RELATIONSHIP('SRR','None',#580,#12);
#12=ADVANCED_BREP_SHAPE_REPRESENTATION('',(#13,#14),#572);
#13=MANIFOLD_SOLID_BREP('Volumenk\X\F6rper1',#311);
#14=MANIFOLD_SOLID_BREP('Volumenk\X\F6rper1',#312);
#15=FACE_BOUND('',#49,.T.);
#16=FACE_BOUND('',#51,.T.);
#17=CIRCLE('',#353,6.5);
#18=CIRCLE('',#355,7.5);
#19=CIRCLE('',#358,7.5);
#20=CIRCLE('',#359,6.5);
#21=CYLINDRICAL_SURFACE('',#352,6.5);
#22=CYLINDRICAL_SURFACE('',#354,7.5);
#23=CYLINDRICAL_SURFACE('',#360,6.5);
#24=CYLINDRICAL_SURFACE('',#366,7.5);
#25=FACE_OUTER_BOUND('',#41,.T.);
#26=FACE_OUTER_BOUND('',#42,.T.);
#27=FACE_OUTER_BOUND('',#43,.T.);
#28=FACE_OUTER_BOUND('',#44,.T.);
#29=FACE_OUTER_BOUND('',#45,.T.);
#30=FACE_OUTER_BOUND('',#46,.T.);
#31=FACE_OUTER_BOUND('',#47,.T.);
#32=FACE_OUTER_BOUND('',#48,.T.);
#33=FACE_OUTER_BOUND('',#50,.T.);
#34=FACE_OUTER_BOUND('',#52,.T.);
#35=FACE_OUTER_BOUND('',#53,.T.);
#36=FACE_OUTER_BOUND('',#54,.T.);
#37=FACE_OUTER_BOUND('',#55,.T.);
#38=FACE_OUTER_BOUND('',#56,.T.);
#39=FACE_OUTER_BOUND('',#57,.T.);
#40=FACE_OUTER_BOUND('',#58,.T.);
#41=EDGE_LOOP('',(#181,#182,#183));
#42=EDGE_LOOP('',(#184,#185,#186,#187,#188,#189));
#43=EDGE_LOOP('',(#190,#191,#192,#193));
#44=EDGE_LOOP('',(#194,#195,#196,#197,#198));
#45=EDGE_LOOP('',(#199,#200,#201,#202));
#46=EDGE_LOOP('',(#203,#204,#205,#206,#207,#208,#209,#210));
#47=EDGE_LOOP('',(#211,#212,#213,#214,#215,#216,#217,#218,#219,#220));
#48=EDGE_LOOP('',(#221));
#49=EDGE_LOOP('',(#222));
#50=EDGE_LOOP('',(#223));
#51=EDGE_LOOP('',(#224));
#52=EDGE_LOOP('',(#225,#226,#227,#228,#229,#230,#231,#232));
#53=EDGE_LOOP('',(#233,#234,#235,#236,#237,#238,#239,#240,#241,#242));
#54=EDGE_LOOP('',(#243,#244,#245,#246));
#55=EDGE_LOOP('',(#247,#248,#249,#250,#251,#252));
#56=EDGE_LOOP('',(#253,#254,#255));
#57=EDGE_LOOP('',(#256,#257,#258,#259));
#58=EDGE_LOOP('',(#260,#261,#262,#263,#264));
#59=LINE('',#489,#73);
#60=LINE('',#496,#74);
#61=LINE('',#500,#75);
#62=LINE('',#506,#76);
#63=LINE('',#513,#77);
#64=LINE('',#521,#78);
#65=LINE('',#525,#79);
#66=LINE('',#540,#80);
#67=LINE('',#548,#81);
#68=LINE('',#561,#82);
#69=LINE('',#562,#83);
#70=LINE('',#564,#84);
#71=LINE('',#565,#85);
#72=LINE('',#568,#86);
#73=VECTOR('',#385,10.);
#74=VECTOR('',#392,10.);
#75=VECTOR('',#397,10.);
#76=VECTOR('',#404,10.);
#77=VECTOR('',#411,10.);
#78=VECTOR('',#424,6.5);
#79=VECTOR('',#429,7.5);
#80=VECTOR('',#446,6.5);
#81=VECTOR('',#455,7.5);
#82=VECTOR('',#470,10.);
#83=VECTOR('',#471,10.);
#84=VECTOR('',#474,10.);
#85=VECTOR('',#475,10.);
#86=VECTOR('',#480,10.);
#87=ELLIPSE('',#336,8.60510614123406,7.5);
#88=ELLIPSE('',#337,8.60510614123406,7.5);
#89=ELLIPSE('',#339,7.6303002645715,6.5);
#90=ELLIPSE('',#340,8.80419261296711,7.5);
#91=ELLIPSE('',#341,8.80419261296711,7.5);
#92=ELLIPSE('',#343,8.8962593273661,6.5);
#93=ELLIPSE('',#344,10.2649146084993,7.5);
#94=ELLIPSE('',#346,7.6303002645715,6.5);
#95=ELLIPSE('',#347,8.80419261296711,7.5);
#96=ELLIPSE('',#348,7.6303002645715,6.5);
#97=ELLIPSE('',#350,8.8962593273661,6.5);
#98=ELLIPSE('',#351,10.2649146084993,7.5);
#99=ELLIPSE('',#361,7.6303002645715,6.5);
#100=ELLIPSE('',#362,8.89625932736611,6.5);
#101=ELLIPSE('',#363,7.6303002645715,6.5);
#102=ELLIPSE('',#364,7.6303002645715,6.5);
#103=ELLIPSE('',#365,8.89625932736611,6.5);
#104=ELLIPSE('',#367,8.60510614123405,7.5);
#105=ELLIPSE('',#368,8.60510614123405,7.5);
#106=ELLIPSE('',#369,8.80419261296711,7.5);
#107=ELLIPSE('',#370,10.2649146084994,7.5);
#108=ELLIPSE('',#371,8.80419261296711,7.5);
#109=ELLIPSE('',#372,10.2649146084994,7.5);
#110=ELLIPSE('',#373,8.80419261296711,7.5);
#111=VERTEX_POINT('',#485);
#112=VERTEX_POINT('',#486);
#113=VERTEX_POINT('',#488);
#114=VERTEX_POINT('',#492);
#115=VERTEX_POINT('',#493);
#116=VERTEX_POINT('',#495);
#117=VERTEX_POINT('',#498);
#118=VERTEX_POINT('',#502);
#119=VERTEX_POINT('',#504);
#120=VERTEX_POINT('',#508);
#121=VERTEX_POINT('',#510);
#122=VERTEX_POINT('',#512);
#123=VERTEX_POINT('',#519);
#124=VERTEX_POINT('',#523);
#125=VERTEX_POINT('',#528);
#126=VERTEX_POINT('',#530);
#127=VERTEX_POINT('',#533);
#128=VERTEX_POINT('',#534);
#129=VERTEX_POINT('',#536);
#130=VERTEX_POINT('',#538);
#131=VERTEX_POINT('',#541);
#132=VERTEX_POINT('',#545);
#133=VERTEX_POINT('',#546);
#134=VERTEX_POINT('',#549);
#135=VERTEX_POINT('',#551);
#136=VERTEX_POINT('',#553);
#137=VERTEX_POINT('',#555);
#138=VERTEX_POINT('',#557);
#139=EDGE_CURVE('',#111,#112,#87,.T.);
#140=EDGE_CURVE('',#113,#111,#59,.T.);
#141=EDGE_CURVE('',#112,#113,#88,.T.);
#142=EDGE_CURVE('',#114,#115,#89,.T.);
#143=EDGE_CURVE('',#116,#114,#60,.T.);
#144=EDGE_CURVE('',#113,#116,#90,.T.);
#145=EDGE_CURVE('',#117,#111,#91,.T.);
#146=EDGE_CURVE('',#115,#117,#61,.T.);
#147=EDGE_CURVE('',#115,#118,#92,.T.);
#148=EDGE_CURVE('',#119,#117,#93,.T.);
#149=EDGE_CURVE('',#118,#119,#62,.T.);
#150=EDGE_CURVE('',#118,#120,#94,.T.);
#151=EDGE_CURVE('',#121,#119,#95,.T.);
#152=EDGE_CURVE('',#121,#122,#63,.T.);
#153=EDGE_CURVE('',#120,#122,#96,.T.);
#154=EDGE_CURVE('',#122,#114,#97,.T.);
#155=EDGE_CURVE('',#116,#121,#98,.T.);
#156=EDGE_CURVE('',#123,#123,#17,.T.);
#157=EDGE_CURVE('',#123,#120,#64,.T.);
#158=EDGE_CURVE('',#124,#124,#18,.T.);
#159=EDGE_CURVE('',#124,#112,#65,.T.);
#160=EDGE_CURVE('',#125,#125,#19,.T.);
#161=EDGE_CURVE('',#126,#126,#20,.T.);
#162=EDGE_CURVE('',#127,#128,#99,.T.);
#163=EDGE_CURVE('',#128,#129,#100,.T.);
#164=EDGE_CURVE('',#129,#130,#101,.T.);
#165=EDGE_CURVE('',#130,#126,#66,.T.);
#166=EDGE_CURVE('',#130,#131,#102,.T.);
#167=EDGE_CURVE('',#131,#127,#103,.T.);
#168=EDGE_CURVE('',#132,#133,#104,.T.);
#169=EDGE_CURVE('',#133,#125,#67,.T.);
#170=EDGE_CURVE('',#133,#134,#105,.T.);
#171=EDGE_CURVE('',#134,#135,#106,.T.);
#172=EDGE_CURVE('',#135,#136,#107,.T.);
#173=EDGE_CURVE('',#136,#137,#108,.T.);
#174=EDGE_CURVE('',#137,#138,#109,.T.);
#175=EDGE_CURVE('',#138,#132,#110,.T.);
#176=EDGE_CURVE('',#127,#135,#68,.T.);
#177=EDGE_CURVE('',#131,#136,#69,.T.);
#178=EDGE_CURVE('',#132,#134,#70,.T.);
#179=EDGE_CURVE('',#138,#128,#71,.T.);
#180=EDGE_CURVE('',#137,#129,#72,.T.);
#181=ORIENTED_EDGE('',*,*,#139,.F.);
#182=ORIENTED_EDGE('',*,*,#140,.F.);
#183=ORIENTED_EDGE('',*,*,#141,.F.);
#184=ORIENTED_EDGE('',*,*,#142,.F.);
#185=ORIENTED_EDGE('',*,*,#143,.F.);
#186=ORIENTED_EDGE('',*,*,#144,.F.);
#187=ORIENTED_EDGE('',*,*,#140,.T.);
#188=ORIENTED_EDGE('',*,*,#145,.F.);
#189=ORIENTED_EDGE('',*,*,#146,.F.);
#190=ORIENTED_EDGE('',*,*,#147,.F.);
#191=ORIENTED_EDGE('',*,*,#146,.T.);
#192=ORIENTED_EDGE('',*,*,#148,.F.);
#193=ORIENTED_EDGE('',*,*,#149,.F.);
#194=ORIENTED_EDGE('',*,*,#150,.F.);
#195=ORIENTED_EDGE('',*,*,#149,.T.);
#196=ORIENTED_EDGE('',*,*,#151,.F.);
#197=ORIENTED_EDGE('',*,*,#152,.T.);
#198=ORIENTED_EDGE('',*,*,#153,.F.);
#199=ORIENTED_EDGE('',*,*,#154,.F.);
#200=ORIENTED_EDGE('',*,*,#152,.F.);
#201=ORIENTED_EDGE('',*,*,#155,.F.);
#202=ORIENTED_EDGE('',*,*,#143,.T.);
#203=ORIENTED_EDGE('',*,*,#156,.F.);
#204=ORIENTED_EDGE('',*,*,#157,.T.);
#205=ORIENTED_EDGE('',*,*,#153,.T.);
#206=ORIENTED_EDGE('',*,*,#154,.T.);
#207=ORIENTED_EDGE('',*,*,#142,.T.);
#208=ORIENTED_EDGE('',*,*,#147,.T.);
#209=ORIENTED_EDGE('',*,*,#150,.T.);
#210=ORIENTED_EDGE('',*,*,#157,.F.);
#211=ORIENTED_EDGE('',*,*,#158,.F.);
#212=ORIENTED_EDGE('',*,*,#159,.T.);
#213=ORIENTED_EDGE('',*,*,#141,.T.);
#214=ORIENTED_EDGE('',*,*,#144,.T.);
#215=ORIENTED_EDGE('',*,*,#155,.T.);
#216=ORIENTED_EDGE('',*,*,#151,.T.);
#217=ORIENTED_EDGE('',*,*,#148,.T.);
#218=ORIENTED_EDGE('',*,*,#145,.T.);
#219=ORIENTED_EDGE('',*,*,#139,.T.);
#220=ORIENTED_EDGE('',*,*,#159,.F.);
#221=ORIENTED_EDGE('',*,*,#158,.T.);
#222=ORIENTED_EDGE('',*,*,#156,.T.);
#223=ORIENTED_EDGE('',*,*,#160,.F.);
#224=ORIENTED_EDGE('',*,*,#161,.F.);
#225=ORIENTED_EDGE('',*,*,#162,.T.);
#226=ORIENTED_EDGE('',*,*,#163,.T.);
#227=ORIENTED_EDGE('',*,*,#164,.T.);
#228=ORIENTED_EDGE('',*,*,#165,.T.);
#229=ORIENTED_EDGE('',*,*,#161,.T.);
#230=ORIENTED_EDGE('',*,*,#165,.F.);
#231=ORIENTED_EDGE('',*,*,#166,.T.);
#232=ORIENTED_EDGE('',*,*,#167,.T.);
#233=ORIENTED_EDGE('',*,*,#168,.T.);
#234=ORIENTED_EDGE('',*,*,#169,.T.);
#235=ORIENTED_EDGE('',*,*,#160,.T.);
#236=ORIENTED_EDGE('',*,*,#169,.F.);
#237=ORIENTED_EDGE('',*,*,#170,.T.);
#238=ORIENTED_EDGE('',*,*,#171,.T.);
#239=ORIENTED_EDGE('',*,*,#172,.T.);
#240=ORIENTED_EDGE('',*,*,#173,.T.);
#241=ORIENTED_EDGE('',*,*,#174,.T.);
#242=ORIENTED_EDGE('',*,*,#175,.T.);
#243=ORIENTED_EDGE('',*,*,#172,.F.);
#244=ORIENTED_EDGE('',*,*,#176,.F.);
#245=ORIENTED_EDGE('',*,*,#167,.F.);
#246=ORIENTED_EDGE('',*,*,#177,.T.);
#247=ORIENTED_EDGE('',*,*,#171,.F.);
#248=ORIENTED_EDGE('',*,*,#178,.F.);
#249=ORIENTED_EDGE('',*,*,#175,.F.);
#250=ORIENTED_EDGE('',*,*,#179,.T.);
#251=ORIENTED_EDGE('',*,*,#162,.F.);
#252=ORIENTED_EDGE('',*,*,#176,.T.);
#253=ORIENTED_EDGE('',*,*,#168,.F.);
#254=ORIENTED_EDGE('',*,*,#178,.T.);
#255=ORIENTED_EDGE('',*,*,#170,.F.);
#256=ORIENTED_EDGE('',*,*,#174,.F.);
#257=ORIENTED_EDGE('',*,*,#180,.T.);
#258=ORIENTED_EDGE('',*,*,#163,.F.);
#259=ORIENTED_EDGE('',*,*,#179,.F.);
#260=ORIENTED_EDGE('',*,*,#173,.F.);
#261=ORIENTED_EDGE('',*,*,#177,.F.);
#262=ORIENTED_EDGE('',*,*,#166,.F.);
#263=ORIENTED_EDGE('',*,*,#164,.F.);
#264=ORIENTED_EDGE('',*,*,#180,.F.);
#265=PLANE('',#335);
#266=PLANE('',#338);
#267=PLANE('',#342);
#268=PLANE('',#345);
#269=PLANE('',#349);
#270=PLANE('',#356);
#271=PLANE('',#357);
#272=PLANE('',#374);
#273=PLANE('',#375);
#274=PLANE('',#376);
#275=PLANE('',#377);
#276=PLANE('',#378);
#277=STYLED_ITEM('',(#589),#295);
#278=STYLED_ITEM('',(#589),#296);
#279=STYLED_ITEM('',(#589),#297);
#280=STYLED_ITEM('',(#589),#298);
#281=STYLED_ITEM('',(#589),#299);
#282=STYLED_ITEM('',(#589),#300);
#283=STYLED_ITEM('',(#589),#301);
#284=STYLED_ITEM('',(#589),#302);
#285=STYLED_ITEM('',(#589),#303);
#286=STYLED_ITEM('',(#589),#304);
#287=STYLED_ITEM('',(#589),#305);
#288=STYLED_ITEM('',(#589),#306);
#289=STYLED_ITEM('',(#589),#307);
#290=STYLED_ITEM('',(#589),#308);
#291=STYLED_ITEM('',(#589),#309);
#292=STYLED_ITEM('',(#589),#310);
#293=STYLED_ITEM('',(#589),#13);
#294=STYLED_ITEM('',(#589),#14);
#295=ADVANCED_FACE('',(#25),#265,.F.);
#296=ADVANCED_FACE('',(#26),#266,.F.);
#297=ADVANCED_FACE('',(#27),#267,.F.);
#298=ADVANCED_FACE('',(#28),#268,.F.);
#299=ADVANCED_FACE('',(#29),#269,.F.);
#300=ADVANCED_FACE('',(#30),#21,.F.);
#301=ADVANCED_FACE('',(#31),#22,.T.);
#302=ADVANCED_FACE('',(#32,#15),#270,.T.);
#303=ADVANCED_FACE('',(#33,#16),#271,.F.);
#304=ADVANCED_FACE('',(#34),#23,.F.);
#305=ADVANCED_FACE('',(#35),#24,.T.);
#306=ADVANCED_FACE('',(#36),#272,.F.);
#307=ADVANCED_FACE('',(#37),#273,.F.);
#308=ADVANCED_FACE('',(#38),#274,.F.);
#309=ADVANCED_FACE('',(#39),#275,.F.);
#310=ADVANCED_FACE('',(#40),#276,.F.);
#311=CLOSED_SHELL('',(#295,#296,#297,#298,#299,#300,#301,#302));
#312=CLOSED_SHELL('',(#303,#304,#305,#306,#307,#308,#309,#310));
#313=DERIVED_UNIT_ELEMENT(#316,1.);
#314=DERIVED_UNIT_ELEMENT(#575,-3.);
#315=DIMENSIONAL_EXPONENTS(0.,1.,0.,0.,0.,0.,0.);
#316=(
CONVERSION_BASED_UNIT('gram',#318)
MASS_UNIT()
NAMED_UNIT(#315)
);
#317=(
MASS_UNIT()
NAMED_UNIT(*)
SI_UNIT(.KILO.,.GRAM.)
);
#318=MASS_MEASURE_WITH_UNIT(MASS_MEASURE(0.001),#317);
#319=DERIVED_UNIT((#313,#314));
#320=MEASURE_REPRESENTATION_ITEM('density measure',
POSITIVE_RATIO_MEASURE(8.),#319);
#321=PROPERTY_DEFINITION_REPRESENTATION(#326,#323);
#322=PROPERTY_DEFINITION_REPRESENTATION(#327,#324);
#323=REPRESENTATION('material name',(#325),#572);
#324=REPRESENTATION('density',(#320),#572);
#325=DESCRIPTIVE_REPRESENTATION_ITEM('Edelstahl','Edelstahl');
#326=PROPERTY_DEFINITION('material property','material name',#582);
#327=PROPERTY_DEFINITION('material property','density of part',#582);
#328=DATE_TIME_ROLE('creation_date');
#329=APPLIED_DATE_AND_TIME_ASSIGNMENT(#330,#328,(#582));
#330=DATE_AND_TIME(#331,#332);
#331=CALENDAR_DATE(2023,8,9);
#332=LOCAL_TIME(0,0,0.,#333);
#333=COORDINATED_UNIVERSAL_TIME_OFFSET(0,0,.BEHIND.);
#334=AXIS2_PLACEMENT_3D('',#483,#379,#380);
#335=AXIS2_PLACEMENT_3D('',#484,#381,#382);
#336=AXIS2_PLACEMENT_3D('',#487,#383,#384);
#337=AXIS2_PLACEMENT_3D('',#490,#386,#387);
#338=AXIS2_PLACEMENT_3D('',#491,#388,#389);
#339=AXIS2_PLACEMENT_3D('',#494,#390,#391);
#340=AXIS2_PLACEMENT_3D('',#497,#393,#394);
#341=AXIS2_PLACEMENT_3D('',#499,#395,#396);
#342=AXIS2_PLACEMENT_3D('',#501,#398,#399);
#343=AXIS2_PLACEMENT_3D('',#503,#400,#401);
#344=AXIS2_PLACEMENT_3D('',#505,#402,#403);
#345=AXIS2_PLACEMENT_3D('',#507,#405,#406);
#346=AXIS2_PLACEMENT_3D('',#509,#407,#408);
#347=AXIS2_PLACEMENT_3D('',#511,#409,#410);
#348=AXIS2_PLACEMENT_3D('',#514,#412,#413);
#349=AXIS2_PLACEMENT_3D('',#515,#414,#415);
#350=AXIS2_PLACEMENT_3D('',#516,#416,#417);
#351=AXIS2_PLACEMENT_3D('',#517,#418,#419);
#352=AXIS2_PLACEMENT_3D('',#518,#420,#421);
#353=AXIS2_PLACEMENT_3D('',#520,#422,#423);
#354=AXIS2_PLACEMENT_3D('',#522,#425,#426);
#355=AXIS2_PLACEMENT_3D('',#524,#427,#428);
#356=AXIS2_PLACEMENT_3D('',#526,#430,#431);
#357=AXIS2_PLACEMENT_3D('',#527,#432,#433);
#358=AXIS2_PLACEMENT_3D('',#529,#434,#435);
#359=AXIS2_PLACEMENT_3D('',#531,#436,#437);
#360=AXIS2_PLACEMENT_3D('',#532,#438,#439);
#361=AXIS2_PLACEMENT_3D('',#535,#440,#441);
#362=AXIS2_PLACEMENT_3D('',#537,#442,#443);
#363=AXIS2_PLACEMENT_3D('',#539,#444,#445);
#364=AXIS2_PLACEMENT_3D('',#542,#447,#448);
#365=AXIS2_PLACEMENT_3D('',#543,#449,#450);
#366=AXIS2_PLACEMENT_3D('',#544,#451,#452);
#367=AXIS2_PLACEMENT_3D('',#547,#453,#454);
#368=AXIS2_PLACEMENT_3D('',#550,#456,#457);
#369=AXIS2_PLACEMENT_3D('',#552,#458,#459);
#370=AXIS2_PLACEMENT_3D('',#554,#460,#461);
#371=AXIS2_PLACEMENT_3D('',#556,#462,#463);
#372=AXIS2_PLACEMENT_3D('',#558,#464,#465);
#373=AXIS2_PLACEMENT_3D('',#559,#466,#467);
#374=AXIS2_PLACEMENT_3D('',#560,#468,#469);
#375=AXIS2_PLACEMENT_3D('',#563,#472,#473);
#376=AXIS2_PLACEMENT_3D('',#566,#476,#477);
#377=AXIS2_PLACEMENT_3D('',#567,#478,#479);
#378=AXIS2_PLACEMENT_3D('',#569,#481,#482);
#379=DIRECTION('axis',(0.,0.,1.));
#380=DIRECTION('refdir',(1.,0.,0.));
#381=DIRECTION('center_axis',(-0.490261241091091,0.871575536304125,0.));
#382=DIRECTION('ref_axis',(-0.871575536304125,-0.49026124109109,0.));
#383=DIRECTION('center_axis',(-0.490261241091091,0.871575536304125,0.));
#384=DIRECTION('ref_axis',(-0.871575536304125,-0.490261241091091,0.));
#385=DIRECTION('',(0.,0.,1.));
#386=DIRECTION('center_axis',(-0.490261241091091,0.871575536304125,0.));
#387=DIRECTION('ref_axis',(-0.871575536304125,-0.490261241091091,0.));
#388=DIRECTION('center_axis',(0.523758376149717,0.851866869535969,0.));
#389=DIRECTION('ref_axis',(-0.851866869535969,0.523758376149717,0.));
#390=DIRECTION('center_axis',(-0.523758376149717,-0.851866869535969,0.));
#391=DIRECTION('ref_axis',(0.851866869535969,-0.523758376149717,0.));
#392=DIRECTION('',(0.,0.,1.));
#393=DIRECTION('center_axis',(0.523758376149717,0.851866869535969,0.));
#394=DIRECTION('ref_axis',(-0.851866869535969,0.523758376149717,0.));
#395=DIRECTION('center_axis',(0.523758376149717,0.851866869535969,0.));
#396=DIRECTION('ref_axis',(-0.851866869535969,0.523758376149717,0.));
#397=DIRECTION('',(0.,0.,1.));
#398=DIRECTION('center_axis',(-0.682758448408589,0.730644168611983,0.));
#399=DIRECTION('ref_axis',(-0.730644168611983,-0.682758448408589,0.));
#400=DIRECTION('center_axis',(0.682758448408589,-0.730644168611983,0.));
#401=DIRECTION('ref_axis',(0.730644168611983,0.682758448408589,0.));
#402=DIRECTION('center_axis',(-0.682758448408589,0.730644168611983,0.));
#403=DIRECTION('ref_axis',(-0.730644168611983,-0.682758448408589,0.));
#404=DIRECTION('',(0.,0.,1.));
#405=DIRECTION('center_axis',(0.523758376149716,0.85186686953597,0.));
#406=DIRECTION('ref_axis',(-0.85186686953597,0.523758376149716,0.));
#407=DIRECTION('center_axis',(-0.523758376149716,-0.85186686953597,0.));
#408=DIRECTION('ref_axis',(0.85186686953597,-0.523758376149715,0.));
#409=DIRECTION('center_axis',(0.523758376149716,0.85186686953597,0.));
#410=DIRECTION('ref_axis',(-0.85186686953597,0.523758376149716,0.));
#411=DIRECTION('',(0.,0.,1.));
#412=DIRECTION('center_axis',(-0.523758376149716,-0.85186686953597,0.));
#413=DIRECTION('ref_axis',(0.85186686953597,-0.523758376149715,0.));
#414=DIRECTION('center_axis',(-0.682758448408589,0.730644168611983,0.));
#415=DIRECTION('ref_axis',(-0.730644168611983,-0.682758448408589,0.));
#416=DIRECTION('center_axis',(0.682758448408589,-0.730644168611983,0.));
#417=DIRECTION('ref_axis',(0.730644168611983,0.682758448408589,0.));
#418=DIRECTION('center_axis',(-0.682758448408589,0.730644168611983,0.));
#419=DIRECTION('ref_axis',(-0.730644168611983,-0.682758448408589,0.));
#420=DIRECTION('center_axis',(0.,1.,0.));
#421=DIRECTION('ref_axis',(1.,0.,0.));
#422=DIRECTION('center_axis',(0.,-1.,0.));
#423=DIRECTION('ref_axis',(1.,0.,0.));
#424=DIRECTION('',(0.,-1.,0.));
#425=DIRECTION('center_axis',(0.,1.,0.));
#426=DIRECTION('ref_axis',(-1.,0.,0.));
#427=DIRECTION('center_axis',(0.,1.,0.));
#428=DIRECTION('ref_axis',(-1.,0.,0.));
#429=DIRECTION('',(0.,-1.,0.));
#430=DIRECTION('center_axis',(0.,1.,0.));
#431=DIRECTION('ref_axis',(0.,0.,1.));
#432=DIRECTION('center_axis',(0.,1.,0.));
#433=DIRECTION('ref_axis',(0.,0.,1.));
#434=DIRECTION('center_axis',(0.,1.,0.));
#435=DIRECTION('ref_axis',(-1.,0.,0.));
#436=DIRECTION('center_axis',(0.,-1.,0.));
#437=DIRECTION('ref_axis',(1.,0.,0.));
#438=DIRECTION('center_axis',(0.,1.,0.));
#439=DIRECTION('ref_axis',(1.,0.,0.));
#440=DIRECTION('center_axis',(0.523758376149716,0.851866869535969,0.));
#441=DIRECTION('ref_axis',(0.851866869535969,-0.523758376149716,0.));
#442=DIRECTION('center_axis',(-0.68275844840859,0.730644168611982,0.));
#443=DIRECTION('ref_axis',(0.730644168611982,0.68275844840859,0.));
#444=DIRECTION('center_axis',(0.523758376149717,0.851866869535969,0.));
#445=DIRECTION('ref_axis',(0.851866869535969,-0.523758376149717,0.));
#446=DIRECTION('',(0.,-1.,0.));
#447=DIRECTION('center_axis',(0.523758376149717,0.851866869535969,0.));
#448=DIRECTION('ref_axis',(0.851866869535969,-0.523758376149717,0.));
#449=DIRECTION('center_axis',(-0.68275844840859,0.730644168611982,0.));
#450=DIRECTION('ref_axis',(0.730644168611982,0.68275844840859,0.));
#451=DIRECTION('center_axis',(0.,1.,0.));
#452=DIRECTION('ref_axis',(-1.,0.,0.));
#453=DIRECTION('center_axis',(0.490261241091089,-0.871575536304126,0.));
#454=DIRECTION('ref_axis',(-0.871575536304126,-0.490261241091089,0.));
#455=DIRECTION('',(0.,-1.,0.));
#456=DIRECTION('center_axis',(0.490261241091089,-0.871575536304126,0.));
#457=DIRECTION('ref_axis',(-0.871575536304126,-0.490261241091089,0.));
#458=DIRECTION('center_axis',(-0.523758376149716,-0.851866869535969,0.));
#459=DIRECTION('ref_axis',(-0.851866869535969,0.523758376149717,0.));
#460=DIRECTION('center_axis',(0.68275844840859,-0.730644168611982,0.));
#461=DIRECTION('ref_axis',(-0.730644168611982,-0.68275844840859,0.));
#462=DIRECTION('center_axis',(-0.523758376149717,-0.851866869535969,0.));
#463=DIRECTION('ref_axis',(-0.851866869535969,0.523758376149717,0.));
#464=DIRECTION('center_axis',(0.68275844840859,-0.730644168611982,0.));
#465=DIRECTION('ref_axis',(-0.730644168611982,-0.68275844840859,0.));
#466=DIRECTION('center_axis',(-0.523758376149716,-0.851866869535969,0.));
#467=DIRECTION('ref_axis',(-0.851866869535969,0.523758376149717,0.));
#468=DIRECTION('center_axis',(0.68275844840859,-0.730644168611982,0.));
#469=DIRECTION('ref_axis',(0.730644168611982,0.68275844840859,0.));
#470=DIRECTION('',(0.,0.,1.));
#471=DIRECTION('',(0.,0.,1.));
#472=DIRECTION('center_axis',(-0.523758376149716,-0.851866869535969,0.));
#473=DIRECTION('ref_axis',(0.851866869535969,-0.523758376149716,0.));
#474=DIRECTION('',(0.,0.,1.));
#475=DIRECTION('',(0.,0.,1.));
#476=DIRECTION('center_axis',(0.490261241091089,-0.871575536304126,0.));
#477=DIRECTION('ref_axis',(0.871575536304126,0.490261241091089,0.));
#478=DIRECTION('center_axis',(0.68275844840859,-0.730644168611982,0.));
#479=DIRECTION('ref_axis',(0.730644168611982,0.68275844840859,0.));
#480=DIRECTION('',(0.,0.,1.));
#481=DIRECTION('center_axis',(-0.523758376149717,-0.851866869535969,0.));
#482=DIRECTION('ref_axis',(0.851866869535969,-0.523758376149717,0.));
#483=CARTESIAN_POINT('',(0.,0.,0.));
#484=CARTESIAN_POINT('Origin',(14.8282864340788,105.250370946156,0.));
#485=CARTESIAN_POINT('',(7.45842494486653,101.104823842239,0.788604680301008));
#486=CARTESIAN_POINT('',(7.5,101.128209810843,-9.18485099360514E-16));
#487=CARTESIAN_POINT('Origin',(0.,96.9094597943211,0.));
#488=CARTESIAN_POINT('',(7.45842494486653,101.104823842239,-0.788604680301008));
#489=CARTESIAN_POINT('',(7.45842494486653,101.104823842239,0.));
#490=CARTESIAN_POINT('Origin',(0.,96.9094597943211,0.));
#491=CARTESIAN_POINT('Origin',(7.45842494486653,101.104823842239,0.));
#492=CARTESIAN_POINT('',(1.53209340742053,104.748545524089,-6.31685758830596));
#493=CARTESIAN_POINT('',(1.53209340742053,104.748545524089,6.31685758830596));
#494=CARTESIAN_POINT('Origin',(0.,105.69053162999,0.));
#495=CARTESIAN_POINT('',(1.53209340742053,104.748545524089,-7.34184512169377));
#496=CARTESIAN_POINT('',(1.53209340742053,104.748545524089,0.));
#497=CARTESIAN_POINT('Origin',(0.,105.69053162999,0.));
#498=CARTESIAN_POINT('',(1.53209340742053,104.748545524089,7.34184512169377));
#499=CARTESIAN_POINT('Origin',(0.,105.69053162999,0.));
#500=CARTESIAN_POINT('',(1.53209340742053,104.748545524089,0.));
#501=CARTESIAN_POINT('Origin',(1.53209340742053,104.748545524089,0.));
#502=CARTESIAN_POINT('',(-2.3671831304148,101.104823842239,6.05363064838611));
#503=CARTESIAN_POINT('Origin',(0.,103.316864053675,0.));
#504=CARTESIAN_POINT('',(-2.3671831304148,101.104823842239,7.11663150845114));
#505=CARTESIAN_POINT('Origin',(0.,103.316864053675,0.));
#506=CARTESIAN_POINT('',(-2.3671831304148,101.104823842239,0.));
#507=CARTESIAN_POINT('Origin',(-2.3671831304148,101.104823842239,0.));
#508=CARTESIAN_POINT('',(-6.5,103.64582822913,7.9602041944578E-16));
#509=CARTESIAN_POINT('Origin',(0.,99.6493945530233,0.));
#510=CARTESIAN_POINT('',(-2.3671831304148,101.104823842239,-7.11663150845114));
#511=CARTESIAN_POINT('Origin',(0.,99.6493945530233,0.));
#512=CARTESIAN_POINT('',(-2.3671831304148,101.104823842239,-6.05363064838611));
#513=CARTESIAN_POINT('',(-2.3671831304148,101.104823842239,0.));
#514=CARTESIAN_POINT('Origin',(0.,99.6493945530233,0.));
#515=CARTESIAN_POINT('Origin',(1.53209340742053,104.748545524089,0.));
#516=CARTESIAN_POINT('Origin',(0.,103.316864053675,0.));
#517=CARTESIAN_POINT('Origin',(0.,103.316864053675,0.));
#518=CARTESIAN_POINT('Origin',(0.,0.,0.));
#519=CARTESIAN_POINT('',(-6.5,200.,7.9602041944578E-16));
#520=CARTESIAN_POINT('Origin',(0.,200.,0.));
#521=CARTESIAN_POINT('',(-6.5,0.,7.9602041944578E-16));
#522=CARTESIAN_POINT('Origin',(0.,0.,0.));
#523=CARTESIAN_POINT('',(7.5,200.,-9.18485099360515E-16));
#524=CARTESIAN_POINT('Origin',(0.,200.,0.));
#525=CARTESIAN_POINT('',(7.5,0.,-9.18485099360515E-16));
#526=CARTESIAN_POINT('Origin',(0.,200.,0.));
#527=CARTESIAN_POINT('Origin',(0.,0.,0.));
#528=CARTESIAN_POINT('',(7.5,0.,-9.18485099360515E-16));
#529=CARTESIAN_POINT('Origin',(0.,0.,0.));
#530=CARTESIAN_POINT('',(-6.5,0.,7.9602041944578E-16));
#531=CARTESIAN_POINT('Origin',(0.,0.,0.));
#532=CARTESIAN_POINT('Origin',(0.,0.,0.));
#533=CARTESIAN_POINT('',(2.16064604939638,98.4926270213326,6.13038405397475));
#534=CARTESIAN_POINT('',(2.16064604939638,98.4926270213326,-6.13038405397475));
#535=CARTESIAN_POINT('Origin',(0.,99.8210698880948,0.));
#536=CARTESIAN_POINT('',(-1.73863048843897,94.8489053394829,-6.2631592686655));
#537=CARTESIAN_POINT('Origin',(0.,96.473587648106,0.));
#538=CARTESIAN_POINT('',(-6.50000000000001,97.7763664872353,7.96020419445779E-16));
#539=CARTESIAN_POINT('Origin',(0.,93.7799328111286,0.));
#540=CARTESIAN_POINT('',(-6.5,0.,7.9602041944578E-16));
#541=CARTESIAN_POINT('',(-1.73863048843897,94.8489053394829,6.2631592686655));
#542=CARTESIAN_POINT('Origin',(0.,93.7799328111286,0.));
#543=CARTESIAN_POINT('Origin',(0.,96.473587648106,0.));
#544=CARTESIAN_POINT('Origin',(0.,0.,0.));
#545=CARTESIAN_POINT('',(7.34569219919674,95.3046742451434,-1.51354091938742));
#546=CARTESIAN_POINT('',(7.5,95.3914723834352,-9.18485099360515E-16));
#547=CARTESIAN_POINT('Origin',(0.,91.1727223669132,0.));
#548=CARTESIAN_POINT('',(7.5,0.,-9.18485099360515E-16));
#549=CARTESIAN_POINT('',(7.34569219919674,95.3046742451434,1.51354091938742));
#550=CARTESIAN_POINT('Origin',(0.,91.1727223669132,0.));
#551=CARTESIAN_POINT('',(2.16064604939638,98.4926270213326,7.18203374046849));
#552=CARTESIAN_POINT('Origin',(0.,99.8210698880948,0.));
#553=CARTESIAN_POINT('',(-1.73863048843897,94.8489053394829,7.29569489662708));
#554=CARTESIAN_POINT('Origin',(0.,96.473587648106,0.));
#555=CARTESIAN_POINT('',(-1.73863048843897,94.8489053394829,-7.29569489662708));
#556=CARTESIAN_POINT('Origin',(0.,93.7799328111286,0.));
#557=CARTESIAN_POINT('',(2.16064604939638,98.4926270213326,-7.18203374046849));
#558=CARTESIAN_POINT('Origin',(0.,96.473587648106,0.));
#559=CARTESIAN_POINT('Origin',(0.,99.8210698880948,0.));
#560=CARTESIAN_POINT('Origin',(-1.73863048843897,94.8489053394829,0.));
#561=CARTESIAN_POINT('',(2.16064604939638,98.4926270213326,0.));
#562=CARTESIAN_POINT('',(-1.73863048843897,94.8489053394829,0.));
#563=CARTESIAN_POINT('Origin',(2.16064604939638,98.4926270213326,0.));
#564=CARTESIAN_POINT('',(7.34569219919674,95.3046742451434,0.));
#565=CARTESIAN_POINT('',(2.16064604939638,98.4926270213326,0.));
#566=CARTESIAN_POINT('Origin',(7.34569219919674,95.3046742451434,0.));
#567=CARTESIAN_POINT('Origin',(-1.73863048843897,94.8489053394829,0.));
#568=CARTESIAN_POINT('',(-1.73863048843897,94.8489053394829,0.));
#569=CARTESIAN_POINT('Origin',(-8.18517685283375,98.8124737987523,0.));
#570=UNCERTAINTY_MEASURE_WITH_UNIT(LENGTH_MEASURE(0.01),#574,
'DISTANCE_ACCURACY_VALUE',
'Maximum model space distance between geometric entities at asserted c
onnectivities');
#571=UNCERTAINTY_MEASURE_WITH_UNIT(LENGTH_MEASURE(0.01),#574,
'DISTANCE_ACCURACY_VALUE',
'Maximum model space distance between geometric entities at asserted c
onnectivities');
#572=(
GEOMETRIC_REPRESENTATION_CONTEXT(3)
GLOBAL_UNCERTAINTY_ASSIGNED_CONTEXT((#570))
GLOBAL_UNIT_ASSIGNED_CONTEXT((#574,#576,#577))
REPRESENTATION_CONTEXT('','3D')
);
#573=(
GEOMETRIC_REPRESENTATION_CONTEXT(3)
GLOBAL_UNCERTAINTY_ASSIGNED_CONTEXT((#571))
GLOBAL_UNIT_ASSIGNED_CONTEXT((#574,#576,#577))
REPRESENTATION_CONTEXT('','3D')
);
#574=(
LENGTH_UNIT()
NAMED_UNIT(*)
SI_UNIT(.MILLI.,.METRE.)
);
#575=(
LENGTH_UNIT()
NAMED_UNIT(*)
SI_UNIT(.CENTI.,.METRE.)
);
#576=(
NAMED_UNIT(*)
PLANE_ANGLE_UNIT()
SI_UNIT($,.RADIAN.)
);
#577=(
NAMED_UNIT(*)
SI_UNIT($,.STERADIAN.)
SOLID_ANGLE_UNIT()
);
#578=SHAPE_DEFINITION_REPRESENTATION(#579,#580);
#579=PRODUCT_DEFINITION_SHAPE('',$,#582);
#580=SHAPE_REPRESENTATION('',(#334),#572);
#581=PRODUCT_DEFINITION_CONTEXT('part definition',#586,'design');
#582=PRODUCT_DEFINITION('tmpAB6B.tmp','tmpAB6B.tmp',#583,#581);
#583=PRODUCT_DEFINITION_FORMATION('',$,#588);
#584=PRODUCT_RELATED_PRODUCT_CATEGORY('tmpAB6B.tmp','tmpAB6B.tmp',(#588));
#585=APPLICATION_PROTOCOL_DEFINITION('international standard',
'automotive_design',2009,#586);
#586=APPLICATION_CONTEXT(
'Core Data for Automotive Mechanical Design Process');
#587=PRODUCT_CONTEXT('part definition',#586,'mechanical');
#588=PRODUCT('tmpAB6B.tmp','tmpAB6B.tmp',$,(#587));
#589=PRESENTATION_STYLE_ASSIGNMENT((#590));
#590=SURFACE_STYLE_USAGE(.BOTH.,#593);
#591=SURFACE_STYLE_RENDERING_WITH_PROPERTIES($,#597,(#592));
#592=SURFACE_STYLE_TRANSPARENT(0.);
#593=SURFACE_SIDE_STYLE('',(#594,#591));
#594=SURFACE_STYLE_FILL_AREA(#595);
#595=FILL_AREA_STYLE('',(#596));
#596=FILL_AREA_STYLE_COLOUR('',#597);
#597=COLOUR_RGB('',0.745098039215686,0.737254901960784,0.729411764705882);
ENDSEC;
END-ISO-10303-21;
