ISO-10303-21;
HEADER;
/****************************************************************
 * Generated by software with PDE/Lib inside                    *
 * PDElib Version v51a, created Fri 12/12/2008                  *
 * International Technegroup Inc. (www.iti-oh.com)              *
 ****************************************************************/
FILE_DESCRIPTION((''),'2;1');
FILE_NAME('E:\\Zwischenspeicher\\18408100X.stp','2010-08-11T11:41:00',('Creator'),(''),'Autodesk Inventor 2010','Autodesk Inventor 2010','');
FILE_SCHEMA(('AUTOMOTIVE_DESIGN { 1 0 10303 214 1 1 1 1 }'));
ENDSEC;
DATA;
#5=APPLICATION_CONTEXT('automotive design');
#6=APPLICATION_PROTOCOL_DEFINITION('International Standard','automotive_design',2001,#5);
#7=PRODUCT_CONTEXT('',#5,'mechanical');
#8=PRODUCT('ENG-004845','ENG-004845',$,(#7));
#9=PRODUCT_RELATED_PRODUCT_CATEGORY('part',$,(#8));
#10=PRODUCT_DEFINITION_FORMATION('',$,#8);
#11=PRODUCT_DEFINITION_CONTEXT('part definition',#5,'design');
#12=PRODUCT_DEFINITION('',$,#10,#11);
#18=(NAMED_UNIT(*)PLANE_ANGLE_UNIT()SI_UNIT($,.RADIAN.));
#19=DIMENSIONAL_EXPONENTS(0.0,0.0,0.0,0.0,0.0,0.0,0.0);
#20=PLANE_ANGLE_MEASURE_WITH_UNIT(PLANE_ANGLE_MEASURE(0.017453292500000),#18);
#24=(CONVERSION_BASED_UNIT('DEGREE',#20)NAMED_UNIT(#19)PLANE_ANGLE_UNIT());
#28=(NAMED_UNIT(*)SI_UNIT($,.STERADIAN.)SOLID_ANGLE_UNIT());
#32=(LENGTH_UNIT()NAMED_UNIT(*)SI_UNIT(.MILLI.,.METRE.));
#34=UNCERTAINTY_MEASURE_WITH_UNIT(LENGTH_MEASURE(0.010000000000000),#32,'DISTANCE_ACCURACY_VALUE','');
#36=(GEOMETRIC_REPRESENTATION_CONTEXT(3)GLOBAL_UNCERTAINTY_ASSIGNED_CONTEXT((#34))GLOBAL_UNIT_ASSIGNED_CONTEXT((#24,#28,#32))REPRESENTATION_CONTEXT('None','None'));
#37=AXIS2_PLACEMENT_3D('',#38,#39,#40);
#38=CARTESIAN_POINT('',(0.0,0.0,0.0));
#39=DIRECTION('',(0.0,0.0,1.0));
#40=DIRECTION('',(1.0,0.0,0.0));
#41=SHAPE_REPRESENTATION('',(#37),#36);
#42=PRODUCT_DEFINITION_SHAPE('','',#12);
#43=SHAPE_DEFINITION_REPRESENTATION(#42,#41);
#49=(NAMED_UNIT(*)PLANE_ANGLE_UNIT()SI_UNIT($,.RADIAN.));
#50=DIMENSIONAL_EXPONENTS(0.0,0.0,0.0,0.0,0.0,0.0,0.0);
#51=PLANE_ANGLE_MEASURE_WITH_UNIT(PLANE_ANGLE_MEASURE(0.017453292500000),#49);
#55=(CONVERSION_BASED_UNIT('DEGREE',#51)NAMED_UNIT(#50)PLANE_ANGLE_UNIT());
#59=(NAMED_UNIT(*)SI_UNIT($,.STERADIAN.)SOLID_ANGLE_UNIT());
#63=(LENGTH_UNIT()NAMED_UNIT(*)SI_UNIT(.MILLI.,.METRE.));
#65=UNCERTAINTY_MEASURE_WITH_UNIT(LENGTH_MEASURE(0.000001000000000),#63,'DISTANCE_ACCURACY_VALUE','');
#67=(GEOMETRIC_REPRESENTATION_CONTEXT(3)GLOBAL_UNCERTAINTY_ASSIGNED_CONTEXT((#65))GLOBAL_UNIT_ASSIGNED_CONTEXT((#55,#59,#63))REPRESENTATION_CONTEXT('','3D'));
#68=CARTESIAN_POINT('',(2.289833969432213,0.0,0.0));
#69=DIRECTION('',(1.0,0.0,0.0));
#70=DIRECTION('',(0.0,0.0,-1.0));
#71=AXIS2_PLACEMENT_3D('',#68,#69,#70);
#72=TOROIDAL_SURFACE('',#71,64.200000000000003,0.800000000000000);
#73=CARTESIAN_POINT('',(2.289833969432213,65.0,0.0));
#74=VERTEX_POINT('',#73);
#75=CARTESIAN_POINT('',(2.289833969432213,0.0,0.0));
#76=DIRECTION('',(1.0,0.0,0.0));
#77=DIRECTION('',(0.0,-1.0,0.0));
#78=AXIS2_PLACEMENT_3D('',#75,#76,#77);
#79=CIRCLE('',#78,65.0);
#80=EDGE_CURVE('',#74,#74,#79,.T.);
#81=ORIENTED_EDGE('',*,*,#80,.T.);
#82=EDGE_LOOP('',(#81));
#83=FACE_OUTER_BOUND('',#82,.T.);
#84=CARTESIAN_POINT('',(3.041588066060939,64.473616114660530,-1.579096E-014));
#85=VERTEX_POINT('',#84);
#86=CARTESIAN_POINT('',(3.041588066060939,0.0,-7.895480E-015));
#87=DIRECTION('',(-1.0,0.0,0.0));
#88=DIRECTION('',(0.0,-1.0,0.0));
#89=AXIS2_PLACEMENT_3D('',#86,#87,#88);
#90=CIRCLE('',#89,64.473616114660530);
#91=EDGE_CURVE('',#85,#85,#90,.T.);
#92=ORIENTED_EDGE('',*,*,#91,.T.);
#93=EDGE_LOOP('',(#92));
#94=FACE_BOUND('',#93,.T.);
#95=ADVANCED_FACE('',(#83,#94),#72,.T.);
#96=CARTESIAN_POINT('',(4.278583169494826,0.0,0.0));
#97=DIRECTION('',(-1.0,0.0,0.0));
#98=DIRECTION('',(0.0,1.0,0.0));
#99=AXIS2_PLACEMENT_3D('',#96,#97,#98);
#100=CONICAL_SURFACE('',#99,61.075000000000003,70.000000000000014);
#101=CARTESIAN_POINT('',(5.228196173837273,58.465959713348667,0.0));
#102=VERTEX_POINT('',#101);
#103=CARTESIAN_POINT('',(5.228196173837273,0.0,-7.159779E-015));
#104=DIRECTION('',(1.0,0.0,0.0));
#105=DIRECTION('',(0.0,-1.0,0.0));
#106=AXIS2_PLACEMENT_3D('',#103,#104,#105);
#107=CIRCLE('',#106,58.465959713348667);
#108=EDGE_CURVE('',#102,#102,#107,.T.);
#109=ORIENTED_EDGE('',*,*,#108,.F.);
#110=EDGE_LOOP('',(#109));
#111=FACE_OUTER_BOUND('',#110,.T.);
#112=ORIENTED_EDGE('',*,*,#91,.F.);
#113=EDGE_LOOP('',(#112));
#114=FACE_BOUND('',#113,.T.);
#115=ADVANCED_FACE('',(#111,#114),#100,.T.);
#116=CARTESIAN_POINT('',(1.424999999999980,0.0,0.0));
#117=DIRECTION('',(1.0,0.0,0.0));
#118=DIRECTION('',(0.0,1.0,0.0));
#119=AXIS2_PLACEMENT_3D('',#116,#117,#118);
#120=CYLINDRICAL_SURFACE('',#119,65.0);
#121=CARTESIAN_POINT('',(-1.998401E-014,65.0,0.0));
#122=VERTEX_POINT('',#121);
#123=CARTESIAN_POINT('',(-1.998401E-014,0.0,0.0));
#124=DIRECTION('',(1.0,0.0,0.0));
#125=DIRECTION('',(0.0,1.0,0.0));
#126=AXIS2_PLACEMENT_3D('',#123,#124,#125);
#127=CIRCLE('',#126,65.0);
#128=EDGE_CURVE('',#122,#122,#127,.T.);
#129=ORIENTED_EDGE('',*,*,#128,.T.);
#130=EDGE_LOOP('',(#129));
#131=FACE_OUTER_BOUND('',#130,.T.);
#132=ORIENTED_EDGE('',*,*,#80,.F.);
#133=EDGE_LOOP('',(#132));
#134=FACE_BOUND('',#133,.T.);
#135=ADVANCED_FACE('',(#131,#134),#120,.T.);
#136=CARTESIAN_POINT('',(7.107581415409088,-6.998625E-015,57.149999999999999));
#137=CARTESIAN_POINT('',(5.107581415409088,-6.998625E-015,57.149999999999999));
#138=CARTESIAN_POINT('',(5.107581415409088,-7.243547E-015,59.149999999999999));
#139=CARTESIAN_POINT('',(5.107581415409088,-7.488468E-015,61.149999999999999));
#140=CARTESIAN_POINT('',(7.107581415409088,-7.488468E-015,61.149999999999999));
#141=CARTESIAN_POINT('',(7.107581415409088,-57.149999999999991,57.149999999999984));
#142=CARTESIAN_POINT('',(5.107581415409088,-57.149999999999991,57.149999999999977));
#143=CARTESIAN_POINT('',(5.107581415409088,-59.149999999999984,59.149999999999977));
#144=CARTESIAN_POINT('',(5.107581415409088,-61.149999999999991,61.149999999999977));
#145=CARTESIAN_POINT('',(7.107581415409088,-61.149999999999991,61.149999999999970));
#146=CARTESIAN_POINT('',(7.107581415409088,-57.149999999999999,-6.998625E-015));
#147=CARTESIAN_POINT('',(5.107581415409088,-57.149999999999999,-6.998625E-015));
#148=CARTESIAN_POINT('',(5.107581415409088,-59.149999999999999,-7.243547E-015));
#149=CARTESIAN_POINT('',(5.107581415409088,-61.149999999999999,-7.488468E-015));
#150=CARTESIAN_POINT('',(7.107581415409088,-61.149999999999999,-7.488468E-015));
#151=CARTESIAN_POINT('',(7.107581415409088,-57.149999999999984,-57.149999999999991));
#152=CARTESIAN_POINT('',(5.107581415409088,-57.149999999999977,-57.149999999999991));
#153=CARTESIAN_POINT('',(5.107581415409088,-59.149999999999977,-59.149999999999984));
#154=CARTESIAN_POINT('',(5.107581415409088,-61.149999999999977,-61.149999999999991));
#155=CARTESIAN_POINT('',(7.107581415409088,-61.149999999999970,-61.149999999999991));
#156=CARTESIAN_POINT('',(7.107581415409088,6.998625E-015,-57.149999999999999));
#157=CARTESIAN_POINT('',(5.107581415409088,6.998625E-015,-57.149999999999999));
#158=CARTESIAN_POINT('',(5.107581415409088,7.243547E-015,-59.149999999999999));
#159=CARTESIAN_POINT('',(5.107581415409088,7.488468E-015,-61.149999999999999));
#160=CARTESIAN_POINT('',(7.107581415409088,7.488468E-015,-61.149999999999999));
#161=CARTESIAN_POINT('',(7.107581415409088,57.149999999999991,-57.149999999999984));
#162=CARTESIAN_POINT('',(5.107581415409088,57.149999999999991,-57.149999999999977));
#163=CARTESIAN_POINT('',(5.107581415409088,59.149999999999984,-59.149999999999977));
#164=CARTESIAN_POINT('',(5.107581415409088,61.149999999999991,-61.149999999999977));
#165=CARTESIAN_POINT('',(7.107581415409088,61.149999999999991,-61.149999999999970));
#166=CARTESIAN_POINT('',(7.107581415409088,57.149999999999999,6.998625E-015));
#167=CARTESIAN_POINT('',(5.107581415409088,57.149999999999999,6.998625E-015));
#168=CARTESIAN_POINT('',(5.107581415409088,59.149999999999999,7.243547E-015));
#169=CARTESIAN_POINT('',(5.107581415409088,61.149999999999999,7.488468E-015));
#170=CARTESIAN_POINT('',(7.107581415409088,61.149999999999999,7.488468E-015));
#171=CARTESIAN_POINT('',(7.107581415409088,57.149999999999984,57.149999999999991));
#172=CARTESIAN_POINT('',(5.107581415409088,57.149999999999977,57.149999999999991));
#173=CARTESIAN_POINT('',(5.107581415409088,59.149999999999977,59.149999999999984));
#174=CARTESIAN_POINT('',(5.107581415409088,61.149999999999977,61.149999999999991));
#175=CARTESIAN_POINT('',(7.107581415409088,61.149999999999970,61.149999999999991));
#176=CARTESIAN_POINT('',(7.107581415409088,-6.998625E-015,57.149999999999999));
#177=CARTESIAN_POINT('',(5.107581415409088,-6.998625E-015,57.149999999999999));
#178=CARTESIAN_POINT('',(5.107581415409088,-7.243547E-015,59.149999999999999));
#179=CARTESIAN_POINT('',(5.107581415409088,-7.488468E-015,61.149999999999999));
#180=CARTESIAN_POINT('',(7.107581415409088,-7.488468E-015,61.149999999999999));
#188=(BOUNDED_SURFACE()B_SPLINE_SURFACE(2,2,((#136,#141,#146,#151,#156,#161,#166,#171,#176),(#137,#142,#147,#152,#157,#162,#167,#172,#177),(#138,#143,#148,#153,#158,#163,#168,#173,#178),(#139,#144,#149,#154,#159,#164,#169,#174,#179),(#140,#145,#150,#155,#160,#165,#170,#175,#180)),.UNSPECIFIED.,.F.,.T.,.U.)B_SPLINE_SURFACE_WITH_KNOTS((3,2,3),(3,2,2,2,3),(-3.141592653589793,-1.570796326794897,0.0),(0.0,1.570796326794897,3.141592653589793,4.712388980384690,6.283185307179586),.UNSPECIFIED.)GEOMETRIC_REPRESENTATION_ITEM()RATIONAL_B_SPLINE_SURFACE(((1.0,0.707106781186548,1.0,0.707106781186548,1.0,0.707106781186548,1.0,0.707106781186548,1.0),(0.707106781186543,0.499999999999997,0.707106781186543,0.499999999999997,0.707106781186543,0.499999999999997,0.707106781186543,0.499999999999997,0.707106781186543),(1.0,0.707106781186548,1.0,0.707106781186548,1.0,0.707106781186548,1.0,0.707106781186548,1.0),(0.707106781186543,0.499999999999997,0.707106781186543,0.499999999999997,0.707106781186543,0.499999999999997,0.707106781186543,0.499999999999997,0.707106781186543),(1.0,0.707106781186548,1.0,0.707106781186548,1.0,0.707106781186548,1.0,0.707106781186548,1.0)))REPRESENTATION_ITEM('')SURFACE());
#189=ORIENTED_EDGE('',*,*,#108,.T.);
#190=EDGE_LOOP('',(#189));
#191=FACE_OUTER_BOUND('',#190,.T.);
#192=CARTESIAN_POINT('',(7.107581415409088,57.149999999999999,-1.399725E-014));
#193=VERTEX_POINT('',#192);
#194=CARTESIAN_POINT('',(7.107581415409088,0.0,0.0));
#195=DIRECTION('',(-1.0,0.0,0.0));
#196=DIRECTION('',(0.0,-1.0,0.0));
#197=AXIS2_PLACEMENT_3D('',#194,#195,#196);
#198=CIRCLE('',#197,57.149999999999999);
#199=EDGE_CURVE('',#193,#193,#198,.T.);
#200=ORIENTED_EDGE('',*,*,#199,.T.);
#201=EDGE_LOOP('',(#200));
#202=FACE_BOUND('',#201,.T.);
#203=ADVANCED_FACE('',(#191,#202),#188,.T.);
#204=CARTESIAN_POINT('',(16.853583169494829,0.0,0.0));
#205=DIRECTION('',(1.0,0.0,0.0));
#206=DIRECTION('',(0.0,1.0,0.0));
#207=AXIS2_PLACEMENT_3D('',#204,#205,#206);
#208=CYLINDRICAL_SURFACE('',#207,57.149999999999999);
#209=CARTESIAN_POINT('',(27.999999999999989,57.149999999999999,0.0));
#210=VERTEX_POINT('',#209);
#211=CARTESIAN_POINT('',(27.999999999999989,0.0,0.0));
#212=DIRECTION('',(1.0,0.0,0.0));
#213=DIRECTION('',(0.0,1.0,0.0));
#214=AXIS2_PLACEMENT_3D('',#211,#212,#213);
#215=CIRCLE('',#214,57.149999999999999);
#216=EDGE_CURVE('',#210,#210,#215,.T.);
#217=ORIENTED_EDGE('',*,*,#216,.F.);
#218=EDGE_LOOP('',(#217));
#219=FACE_OUTER_BOUND('',#218,.T.);
#220=ORIENTED_EDGE('',*,*,#199,.F.);
#221=EDGE_LOOP('',(#220));
#222=FACE_BOUND('',#221,.T.);
#223=ADVANCED_FACE('',(#219,#222),#208,.T.);
#224=CARTESIAN_POINT('',(27.999999999999989,56.0,0.0));
#225=DIRECTION('',(1.0,0.0,0.0));
#226=DIRECTION('',(0.0,0.0,-1.0));
#227=AXIS2_PLACEMENT_3D('',#224,#225,#226);
#228=PLANE('',#227);
#229=ORIENTED_EDGE('',*,*,#216,.T.);
#230=EDGE_LOOP('',(#229));
#231=FACE_OUTER_BOUND('',#230,.T.);
#232=CARTESIAN_POINT('',(27.999999999999993,54.850000000000001,0.0));
#233=VERTEX_POINT('',#232);
#234=CARTESIAN_POINT('',(27.999999999999993,0.0,0.0));
#235=DIRECTION('',(1.0,0.0,0.0));
#236=DIRECTION('',(0.0,1.0,0.0));
#237=AXIS2_PLACEMENT_3D('',#234,#235,#236);
#238=CIRCLE('',#237,54.850000000000001);
#239=EDGE_CURVE('',#233,#233,#238,.T.);
#240=ORIENTED_EDGE('',*,*,#239,.F.);
#241=EDGE_LOOP('',(#240));
#242=FACE_BOUND('',#241,.T.);
#243=ADVANCED_FACE('',(#231,#242),#228,.T.);
#244=CARTESIAN_POINT('',(13.999999999999988,0.0,0.0));
#245=DIRECTION('',(1.0,0.0,0.0));
#246=DIRECTION('',(0.0,1.0,0.0));
#247=AXIS2_PLACEMENT_3D('',#244,#245,#246);
#248=CYLINDRICAL_SURFACE('',#247,54.850000000000001);
#249=CARTESIAN_POINT('',(-1.776357E-014,54.850000000000001,0.0));
#250=VERTEX_POINT('',#249);
#251=CARTESIAN_POINT('',(-1.776357E-014,0.0,0.0));
#252=DIRECTION('',(1.0,0.0,0.0));
#253=DIRECTION('',(0.0,1.0,0.0));
#254=AXIS2_PLACEMENT_3D('',#251,#252,#253);
#255=CIRCLE('',#254,54.850000000000001);
#256=EDGE_CURVE('',#250,#250,#255,.T.);
#257=ORIENTED_EDGE('',*,*,#256,.F.);
#258=EDGE_LOOP('',(#257));
#259=FACE_OUTER_BOUND('',#258,.T.);
#260=ORIENTED_EDGE('',*,*,#239,.T.);
#261=EDGE_LOOP('',(#260));
#262=FACE_BOUND('',#261,.T.);
#263=ADVANCED_FACE('',(#259,#262),#248,.F.);
#264=CARTESIAN_POINT('',(-1.797174E-014,56.923534585836620,0.0));
#265=DIRECTION('',(-1.0,0.0,0.0));
#266=DIRECTION('',(0.0,0.0,1.0));
#267=AXIS2_PLACEMENT_3D('',#264,#265,#266);
#268=PLANE('',#267);
#269=CARTESIAN_POINT('',(-1.817990E-014,58.997069171673246,0.0));
#270=VERTEX_POINT('',#269);
#271=CARTESIAN_POINT('',(-1.817990E-014,0.0,0.0));
#272=DIRECTION('',(1.0,0.0,0.0));
#273=DIRECTION('',(0.0,1.0,0.0));
#274=AXIS2_PLACEMENT_3D('',#271,#272,#273);
#275=CIRCLE('',#274,58.997069171673246);
#276=EDGE_CURVE('',#270,#270,#275,.T.);
#277=ORIENTED_EDGE('',*,*,#276,.F.);
#278=EDGE_LOOP('',(#277));
#279=FACE_OUTER_BOUND('',#278,.T.);
#280=ORIENTED_EDGE('',*,*,#256,.T.);
#281=EDGE_LOOP('',(#280));
#282=FACE_BOUND('',#281,.T.);
#283=ADVANCED_FACE('',(#279,#282),#268,.T.);
#284=CARTESIAN_POINT('',(0.799999999999982,0.0,0.0));
#285=DIRECTION('',(1.0,0.0,0.0));
#286=DIRECTION('',(0.0,0.0,-1.0));
#287=AXIS2_PLACEMENT_3D('',#284,#285,#286);
#288=TOROIDAL_SURFACE('',#287,58.997069171673246,0.799999999999997);
#289=CARTESIAN_POINT('',(0.487415097208556,59.733473054435194,0.0));
#290=VERTEX_POINT('',#289);
#291=CARTESIAN_POINT('',(0.487415097208556,0.0,0.0));
#292=DIRECTION('',(1.0,0.0,0.0));
#293=DIRECTION('',(0.0,1.0,0.0));
#294=AXIS2_PLACEMENT_3D('',#291,#292,#293);
#295=CIRCLE('',#294,59.733473054435194);
#296=EDGE_CURVE('',#290,#290,#295,.T.);
#297=ORIENTED_EDGE('',*,*,#296,.F.);
#298=EDGE_LOOP('',(#297));
#299=FACE_OUTER_BOUND('',#298,.T.);
#300=ORIENTED_EDGE('',*,*,#276,.T.);
#301=EDGE_LOOP('',(#300));
#302=FACE_BOUND('',#301,.T.);
#303=ADVANCED_FACE('',(#299,#302),#288,.T.);
#304=CARTESIAN_POINT('',(0.678146225697836,0.0,0.0));
#305=DIRECTION('',(1.0,0.0,0.0));
#306=DIRECTION('',(0.0,1.0,0.0));
#307=AXIS2_PLACEMENT_3D('',#304,#305,#306);
#308=CONICAL_SURFACE('',#307,59.814433615146143,23.000000000001879);
#309=CARTESIAN_POINT('',(0.868877354187117,59.895394175857092,0.0));
#310=VERTEX_POINT('',#309);
#311=CARTESIAN_POINT('',(0.868877354187117,0.0,0.0));
#312=DIRECTION('',(1.0,0.0,0.0));
#313=DIRECTION('',(0.0,1.0,0.0));
#314=AXIS2_PLACEMENT_3D('',#311,#312,#313);
#315=CIRCLE('',#314,59.895394175857092);
#316=EDGE_CURVE('',#310,#310,#315,.T.);
#317=ORIENTED_EDGE('',*,*,#316,.F.);
#318=EDGE_LOOP('',(#317));
#319=FACE_OUTER_BOUND('',#318,.T.);
#320=ORIENTED_EDGE('',*,*,#296,.T.);
#321=EDGE_LOOP('',(#320));
#322=FACE_BOUND('',#321,.T.);
#323=ADVANCED_FACE('',(#319,#322),#308,.T.);
#324=CARTESIAN_POINT('',(0.868877354187108,-7.605369E-015,62.104605824142936));
#325=CARTESIAN_POINT('',(1.599999999999985,-7.567365E-015,61.794262673434837));
#326=CARTESIAN_POINT('',(1.599999999999985,-7.470099E-015,61.000000000000007));
#327=CARTESIAN_POINT('',(1.599999999999985,-7.372833E-015,60.205737326565178));
#328=CARTESIAN_POINT('',(0.868877354187108,-7.334828E-015,59.895394175857078));
#329=CARTESIAN_POINT('',(0.868877354187108,-62.104605824142929,62.104605824142922));
#330=CARTESIAN_POINT('',(1.599999999999985,-61.794262673434829,61.794262673434815));
#331=CARTESIAN_POINT('',(1.599999999999985,-60.999999999999993,60.999999999999986));
#332=CARTESIAN_POINT('',(1.599999999999985,-60.205737326565163,60.205737326565156));
#333=CARTESIAN_POINT('',(0.868877354187108,-59.895394175857071,59.895394175857049));
#334=CARTESIAN_POINT('',(0.868877354187108,-62.104605824142936,-7.605369E-015));
#335=CARTESIAN_POINT('',(1.599999999999985,-61.794262673434837,-7.567365E-015));
#336=CARTESIAN_POINT('',(1.599999999999985,-61.000000000000007,-7.470099E-015));
#337=CARTESIAN_POINT('',(1.599999999999985,-60.205737326565178,-7.372833E-015));
#338=CARTESIAN_POINT('',(0.868877354187108,-59.895394175857078,-7.334828E-015));
#339=CARTESIAN_POINT('',(0.868877354187108,-62.104605824142922,-62.104605824142929));
#340=CARTESIAN_POINT('',(1.599999999999985,-61.794262673434815,-61.794262673434829));
#341=CARTESIAN_POINT('',(1.599999999999985,-60.999999999999986,-60.999999999999993));
#342=CARTESIAN_POINT('',(1.599999999999985,-60.205737326565156,-60.205737326565163));
#343=CARTESIAN_POINT('',(0.868877354187108,-59.895394175857049,-59.895394175857071));
#344=CARTESIAN_POINT('',(0.868877354187108,7.605369E-015,-62.104605824142936));
#345=CARTESIAN_POINT('',(1.599999999999985,7.567365E-015,-61.794262673434837));
#346=CARTESIAN_POINT('',(1.599999999999985,7.470099E-015,-61.000000000000007));
#347=CARTESIAN_POINT('',(1.599999999999985,7.372833E-015,-60.205737326565178));
#348=CARTESIAN_POINT('',(0.868877354187108,7.334828E-015,-59.895394175857078));
#349=CARTESIAN_POINT('',(0.868877354187108,62.104605824142929,-62.104605824142922));
#350=CARTESIAN_POINT('',(1.599999999999985,61.794262673434829,-61.794262673434815));
#351=CARTESIAN_POINT('',(1.599999999999985,60.999999999999993,-60.999999999999986));
#352=CARTESIAN_POINT('',(1.599999999999985,60.205737326565163,-60.205737326565156));
#353=CARTESIAN_POINT('',(0.868877354187108,59.895394175857071,-59.895394175857049));
#354=CARTESIAN_POINT('',(0.868877354187108,62.104605824142936,7.605369E-015));
#355=CARTESIAN_POINT('',(1.599999999999985,61.794262673434837,7.567365E-015));
#356=CARTESIAN_POINT('',(1.599999999999985,61.000000000000007,7.470099E-015));
#357=CARTESIAN_POINT('',(1.599999999999985,60.205737326565178,7.372833E-015));
#358=CARTESIAN_POINT('',(0.868877354187108,59.895394175857078,7.334828E-015));
#359=CARTESIAN_POINT('',(0.868877354187108,62.104605824142922,62.104605824142929));
#360=CARTESIAN_POINT('',(1.599999999999985,61.794262673434815,61.794262673434829));
#361=CARTESIAN_POINT('',(1.599999999999985,60.999999999999986,60.999999999999993));
#362=CARTESIAN_POINT('',(1.599999999999985,60.205737326565156,60.205737326565163));
#363=CARTESIAN_POINT('',(0.868877354187108,59.895394175857049,59.895394175857071));
#364=CARTESIAN_POINT('',(0.868877354187108,-7.605369E-015,62.104605824142936));
#365=CARTESIAN_POINT('',(1.599999999999985,-7.567365E-015,61.794262673434837));
#366=CARTESIAN_POINT('',(1.599999999999985,-7.470099E-015,61.000000000000007));
#367=CARTESIAN_POINT('',(1.599999999999985,-7.372833E-015,60.205737326565178));
#368=CARTESIAN_POINT('',(0.868877354187108,-7.334828E-015,59.895394175857078));
#376=(BOUNDED_SURFACE()B_SPLINE_SURFACE(2,2,((#324,#329,#334,#339,#344,#349,#354,#359,#364),(#325,#330,#335,#340,#345,#350,#355,#360,#365),(#326,#331,#336,#341,#346,#351,#356,#361,#366),(#327,#332,#337,#342,#347,#352,#357,#362,#367),(#328,#333,#338,#343,#348,#353,#358,#363,#368)),.UNSPECIFIED.,.F.,.T.,.U.)B_SPLINE_SURFACE_WITH_KNOTS((3,2,3),(3,2,2,2,3),(0.401425727958692,1.570796326794897,2.740166925631101),(0.0,1.570796326794897,3.141592653589793,4.712388980384690,6.283185307179586),.UNSPECIFIED.)GEOMETRIC_REPRESENTATION_ITEM()RATIONAL_B_SPLINE_SURFACE(((1.0,0.707106781186548,1.0,0.707106781186548,1.0,0.707106781186548,1.0,0.707106781186548,1.0),(0.833885822067174,0.589646319519017,0.833885822067174,0.589646319519017,0.833885822067174,0.589646319519017,0.833885822067174,0.589646319519017,0.833885822067174),(1.0,0.707106781186548,1.0,0.707106781186548,1.0,0.707106781186548,1.0,0.707106781186548,1.0),(0.833885822067175,0.589646319519018,0.833885822067175,0.589646319519018,0.833885822067175,0.589646319519018,0.833885822067175,0.589646319519018,0.833885822067175),(1.0,0.707106781186548,1.0,0.707106781186548,1.0,0.707106781186548,1.0,0.707106781186548,1.0)))REPRESENTATION_ITEM('')SURFACE());
#377=CARTESIAN_POINT('',(0.868877354187106,62.104605824142922,0.0));
#378=VERTEX_POINT('',#377);
#379=CARTESIAN_POINT('',(0.868877354187106,0.0,0.0));
#380=DIRECTION('',(1.0,0.0,0.0));
#381=DIRECTION('',(0.0,1.0,0.0));
#382=AXIS2_PLACEMENT_3D('',#379,#380,#381);
#383=CIRCLE('',#382,62.104605824142922);
#384=EDGE_CURVE('',#378,#378,#383,.T.);
#385=ORIENTED_EDGE('',*,*,#384,.F.);
#386=EDGE_LOOP('',(#385));
#387=FACE_OUTER_BOUND('',#386,.T.);
#388=ORIENTED_EDGE('',*,*,#316,.T.);
#389=EDGE_LOOP('',(#388));
#390=FACE_BOUND('',#389,.T.);
#391=ADVANCED_FACE('',(#387,#390),#376,.T.);
#392=CARTESIAN_POINT('',(0.678146225697834,0.0,0.0));
#393=DIRECTION('',(-1.0,0.0,0.0));
#394=DIRECTION('',(0.0,1.0,0.0));
#395=AXIS2_PLACEMENT_3D('',#392,#393,#394);
#396=CONICAL_SURFACE('',#395,62.185566384853871,23.000000000001641);
#397=CARTESIAN_POINT('',(0.487415097208561,62.266526945564806,0.0));
#398=VERTEX_POINT('',#397);
#399=CARTESIAN_POINT('',(0.487415097208561,0.0,0.0));
#400=DIRECTION('',(1.0,0.0,0.0));
#401=DIRECTION('',(0.0,1.0,0.0));
#402=AXIS2_PLACEMENT_3D('',#399,#400,#401);
#403=CIRCLE('',#402,62.266526945564806);
#404=EDGE_CURVE('',#398,#398,#403,.T.);
#405=ORIENTED_EDGE('',*,*,#404,.F.);
#406=EDGE_LOOP('',(#405));
#407=FACE_OUTER_BOUND('',#406,.T.);
#408=ORIENTED_EDGE('',*,*,#384,.T.);
#409=EDGE_LOOP('',(#408));
#410=FACE_BOUND('',#409,.T.);
#411=ADVANCED_FACE('',(#407,#410),#396,.F.);
#412=CARTESIAN_POINT('',(0.799999999999981,0.0,0.0));
#413=DIRECTION('',(1.0,0.0,0.0));
#414=DIRECTION('',(0.0,0.0,-1.0));
#415=AXIS2_PLACEMENT_3D('',#412,#413,#414);
#416=TOROIDAL_SURFACE('',#415,63.002930828326754,0.800000000000011);
#417=CARTESIAN_POINT('',(-1.915135E-014,63.002930828326754,0.0));
#418=VERTEX_POINT('',#417);
#419=CARTESIAN_POINT('',(-1.915135E-014,0.0,0.0));
#420=DIRECTION('',(1.0,0.0,0.0));
#421=DIRECTION('',(0.0,1.0,0.0));
#422=AXIS2_PLACEMENT_3D('',#419,#420,#421);
#423=CIRCLE('',#422,63.002930828326754);
#424=EDGE_CURVE('',#418,#418,#423,.T.);
#425=ORIENTED_EDGE('',*,*,#424,.F.);
#426=EDGE_LOOP('',(#425));
#427=FACE_OUTER_BOUND('',#426,.T.);
#428=ORIENTED_EDGE('',*,*,#404,.T.);
#429=EDGE_LOOP('',(#428));
#430=FACE_BOUND('',#429,.T.);
#431=ADVANCED_FACE('',(#427,#430),#416,.T.);
#432=CARTESIAN_POINT('',(-1.956768E-014,64.001465414163377,0.0));
#433=DIRECTION('',(-1.0,0.0,0.0));
#434=DIRECTION('',(0.0,0.0,1.0));
#435=AXIS2_PLACEMENT_3D('',#432,#433,#434);
#436=PLANE('',#435);
#437=ORIENTED_EDGE('',*,*,#128,.F.);
#438=EDGE_LOOP('',(#437));
#439=FACE_OUTER_BOUND('',#438,.T.);
#440=ORIENTED_EDGE('',*,*,#424,.T.);
#441=EDGE_LOOP('',(#440));
#442=FACE_BOUND('',#441,.T.);
#443=ADVANCED_FACE('',(#439,#442),#436,.T.);
#444=CLOSED_SHELL('',(#95,#115,#135,#203,#223,#243,#263,#283,#303,#323,#391,#411,#431,#443));
#445=MANIFOLD_SOLID_BREP('Volumenk\S\vrper1',#444);
#446=COLOUR_RGB('Standard',0.752941012382507,0.752941012382507,0.752941012382507);
#447=FILL_AREA_STYLE_COLOUR('Standard',#446);
#448=FILL_AREA_STYLE('Standard',(#447));
#449=SURFACE_STYLE_FILL_AREA(#448);
#450=SURFACE_SIDE_STYLE('Standard',(#449));
#451=SURFACE_STYLE_USAGE(.BOTH.,#450);
#452=PRESENTATION_STYLE_ASSIGNMENT((#451));
#453=STYLED_ITEM('',(#452),#445);
#454=MECHANICAL_DESIGN_GEOMETRIC_PRESENTATION_REPRESENTATION('',(#453),#36);
#455=ADVANCED_BREP_SHAPE_REPRESENTATION('ABSR',(#445),#36);
#456=SHAPE_REPRESENTATION_RELATIONSHIP('SRR','None',#455,#41);
ENDSEC;
END-ISO-10303-21;
