ISO-10303-21;
HEADER;
FILE_DESCRIPTION(('OneSpaceDesigner STEP Export'),'2;1');
FILE_NAME('FGN1-15.stp','2011-03-31T 9:23:57',(''),(''),
'OneSpace Designer STEP processor for AP214 (Solid Model)',
'OneSpace Modeling 15.00B  25-Jun-2007 (C) CoCreate Software GmbH','');
FILE_SCHEMA(('AUTOMOTIVE_DESIGN { 1 0 10303 214 1 1 1 1 }'));
ENDSEC;
DATA;
#10=CARTESIAN_POINT('',(74.239901,44.0093840556837,-3.23285142992637));
#20=DIRECTION('',(1.,0.,0.));
#30=DIRECTION('',(0.,1.,0.));
#40=AXIS2_PLACEMENT_3D('',#10,#20,#30);
#50=PLANE('',#40);
#60=CARTESIAN_POINT('',(74.239901,46.433052,0.));
#70=DIRECTION('',(1.,0.,0.));
#80=DIRECTION('',(0.,1.,0.));
#90=AXIS2_PLACEMENT_3D('',#60,#70,#80);
#100=CIRCLE('',#90,8.);
#110=CARTESIAN_POINT('',(74.239901,38.433052,9.79717439317883E-16));
#120=VERTEX_POINT('',#110);
#130=CARTESIAN_POINT('',(74.239901,54.433052,0.));
#140=VERTEX_POINT('',#130);
#150=EDGE_CURVE('',#120,#140,#100,.T.);
#160=ORIENTED_EDGE('',*,*,#150,.T.);
#170=EDGE_CURVE('',#140,#120,#100,.T.);
#180=ORIENTED_EDGE('',*,*,#170,.T.);
#190=EDGE_LOOP('',(#180,#160));
#200=FACE_OUTER_BOUND('',#190,.T.);
#210=ADVANCED_FACE('',(#200),#50,.T.);
#220=CARTESIAN_POINT('',(79.239901,46.433052,0.));
#230=DIRECTION('',(1.,0.,0.));
#240=DIRECTION('',(0.,1.,0.));
#250=AXIS2_PLACEMENT_3D('',#220,#230,#240);
#260=CYLINDRICAL_SURFACE('',#250,8.);
#270=CARTESIAN_POINT('',(79.239901,38.433052,9.79717439317883E-16));
#280=DIRECTION('',(1.,0.,0.));
#290=VECTOR('',#280,1.);
#300=LINE('',#270,#290);
#310=CARTESIAN_POINT('',(82.239901,38.433052,9.79717439317883E-16));
#320=VERTEX_POINT('',#310);
#330=EDGE_CURVE('',#120,#320,#300,.T.);
#340=ORIENTED_EDGE('',*,*,#330,.T.);
#350=ORIENTED_EDGE('',*,*,#150,.F.);
#360=CARTESIAN_POINT('',(79.239901,54.433052,0.));
#370=DIRECTION('',(1.,0.,0.));
#380=VECTOR('',#370,1.);
#390=LINE('',#360,#380);
#400=CARTESIAN_POINT('',(82.239901,54.433052,0.));
#410=VERTEX_POINT('',#400);
#420=EDGE_CURVE('',#140,#410,#390,.T.);
#430=ORIENTED_EDGE('',*,*,#420,.F.);
#440=CARTESIAN_POINT('',(82.239901,46.433052,0.));
#450=DIRECTION('',(1.,0.,0.));
#460=DIRECTION('',(0.,1.,0.));
#470=AXIS2_PLACEMENT_3D('',#440,#450,#460);
#480=CIRCLE('',#470,8.);
#490=EDGE_CURVE('',#320,#410,#480,.T.);
#500=ORIENTED_EDGE('',*,*,#490,.T.);
#510=EDGE_LOOP('',(#500,#430,#350,#340));
#520=FACE_OUTER_BOUND('',#510,.T.);
#530=ADVANCED_FACE('',(#520),#260,.F.);
#540=CARTESIAN_POINT('',(82.239901,37.933052,0.));
#550=DIRECTION('',(-1.,0.,0.));
#560=DIRECTION('',(0.,1.,0.));
#570=AXIS2_PLACEMENT_3D('',#540,#550,#560);
#580=PLANE('',#570);
#590=CARTESIAN_POINT('',(82.239901,46.433052,0.));
#600=DIRECTION('',(-1.,0.,0.));
#610=DIRECTION('',(0.,-1.,0.));
#620=AXIS2_PLACEMENT_3D('',#590,#600,#610);
#630=CIRCLE('',#620,9.);
#640=CARTESIAN_POINT('',(82.239901,37.433052,-1.10218211923262E-15));
#650=VERTEX_POINT('',#640);
#660=CARTESIAN_POINT('',(82.239901,55.433052,0.));
#670=VERTEX_POINT('',#660);
#680=EDGE_CURVE('',#650,#670,#630,.T.);
#690=ORIENTED_EDGE('',*,*,#680,.F.);
#700=EDGE_CURVE('',#670,#650,#630,.T.);
#710=ORIENTED_EDGE('',*,*,#700,.F.);
#720=EDGE_LOOP('',(#710,#690));
#730=FACE_OUTER_BOUND('',#720,.T.);
#740=EDGE_CURVE('',#410,#320,#480,.T.);
#750=ORIENTED_EDGE('',*,*,#740,.F.);
#760=ORIENTED_EDGE('',*,*,#490,.F.);
#770=EDGE_LOOP('',(#760,#750));
#780=FACE_BOUND('',#770,.T.);
#790=ADVANCED_FACE('',(#730,#780),#580,.F.);
#800=CARTESIAN_POINT('',(76.739901,46.433052,0.));
#810=DIRECTION('',(-1.,0.,0.));
#820=DIRECTION('',(0.,1.,0.));
#830=AXIS2_PLACEMENT_3D('',#800,#810,#820);
#840=CYLINDRICAL_SURFACE('',#830,9.);
#850=CARTESIAN_POINT('',(76.739901,37.433052,-1.10218211923262E-15));
#860=DIRECTION('',(-1.,0.,0.));
#870=VECTOR('',#860,1.);
#880=LINE('',#850,#870);
#890=CARTESIAN_POINT('',(77.239901,37.433052,-1.10218211923262E-15));
#900=VERTEX_POINT('',#890);
#910=EDGE_CURVE('',#650,#900,#880,.T.);
#920=ORIENTED_EDGE('',*,*,#910,.T.);
#930=ORIENTED_EDGE('',*,*,#700,.T.);
#940=CARTESIAN_POINT('',(76.739901,55.433052,0.));
#950=DIRECTION('',(-1.,0.,0.));
#960=VECTOR('',#950,1.);
#970=LINE('',#940,#960);
#980=CARTESIAN_POINT('',(77.239901,55.433052,0.));
#990=VERTEX_POINT('',#980);
#1000=EDGE_CURVE('',#670,#990,#970,.T.);
#1010=ORIENTED_EDGE('',*,*,#1000,.F.);
#1020=CARTESIAN_POINT('',(77.239901,46.433052,0.));
#1030=DIRECTION('',(-1.,0.,0.));
#1040=DIRECTION('',(0.,1.,0.));
#1050=AXIS2_PLACEMENT_3D('',#1020,#1030,#1040);
#1060=CIRCLE('',#1050,9.);
#1070=EDGE_CURVE('',#990,#900,#1060,.T.);
#1080=ORIENTED_EDGE('',*,*,#1070,.F.);
#1090=EDGE_LOOP('',(#1080,#1010,#930,#920));
#1100=FACE_OUTER_BOUND('',#1090,.T.);
#1110=ADVANCED_FACE('',(#1100),#840,.T.);
#1120=CARTESIAN_POINT('',(77.239901,28.433052,0.));
#1130=DIRECTION('',(-1.,0.,0.));
#1140=DIRECTION('',(0.,1.,0.));
#1150=AXIS2_PLACEMENT_3D('',#1120,#1130,#1140);
#1160=PLANE('',#1150);
#1170=EDGE_CURVE('',#900,#990,#1060,.T.);
#1180=ORIENTED_EDGE('',*,*,#1170,.T.);
#1190=ORIENTED_EDGE('',*,*,#1070,.T.);
#1200=EDGE_LOOP('',(#1190,#1180));
#1210=FACE_BOUND('',#1200,.T.);
#1220=CARTESIAN_POINT('',(77.239901,46.433052,0.));
#1230=DIRECTION('',(-1.,0.,0.));
#1240=DIRECTION('',(0.,-1.,0.));
#1250=AXIS2_PLACEMENT_3D('',#1220,#1230,#1240);
#1260=CIRCLE('',#1250,27.);
#1270=CARTESIAN_POINT('',(77.239901,19.433052,0.));
#1280=VERTEX_POINT('',#1270);
#1290=CARTESIAN_POINT('',(77.239901,73.433052,-3.30654635769785E-15));
#1300=VERTEX_POINT('',#1290);
#1310=EDGE_CURVE('',#1280,#1300,#1260,.T.);
#1320=ORIENTED_EDGE('',*,*,#1310,.F.);
#1330=EDGE_CURVE('',#1300,#1280,#1260,.T.);
#1340=ORIENTED_EDGE('',*,*,#1330,.F.);
#1350=EDGE_LOOP('',(#1340,#1320));
#1360=FACE_OUTER_BOUND('',#1350,.T.);
#1370=ADVANCED_FACE('',(#1210,#1360),#1160,.F.);
#1380=CARTESIAN_POINT('',(66.739901,46.433052,0.));
#1390=DIRECTION('',(1.,0.,0.));
#1400=DIRECTION('',(0.,-1.,0.));
#1410=AXIS2_PLACEMENT_3D('',#1380,#1390,#1400);
#1420=CYLINDRICAL_SURFACE('',#1410,27.);
#1430=CARTESIAN_POINT('',(66.739901,73.433052,-3.30654635769785E-15));
#1440=DIRECTION('',(1.,0.,0.));
#1450=VECTOR('',#1440,1.);
#1460=LINE('',#1430,#1450);
#1470=CARTESIAN_POINT('',(70.739901,73.433052,-3.30654635769785E-15));
#1480=VERTEX_POINT('',#1470);
#1490=EDGE_CURVE('',#1480,#1300,#1460,.T.);
#1500=ORIENTED_EDGE('',*,*,#1490,.F.);
#1510=ORIENTED_EDGE('',*,*,#1310,.T.);
#1520=CARTESIAN_POINT('',(66.739901,19.433052,0.));
#1530=DIRECTION('',(1.,0.,0.));
#1540=VECTOR('',#1530,1.);
#1550=LINE('',#1520,#1540);
#1560=CARTESIAN_POINT('',(70.739901,19.433052,0.));
#1570=VERTEX_POINT('',#1560);
#1580=EDGE_CURVE('',#1570,#1280,#1550,.T.);
#1590=ORIENTED_EDGE('',*,*,#1580,.T.);
#1600=CARTESIAN_POINT('',(70.739901,46.433052,0.));
#1610=DIRECTION('',(1.,0.,0.));
#1620=DIRECTION('',(0.,-1.,0.));
#1630=AXIS2_PLACEMENT_3D('',#1600,#1610,#1620);
#1640=CIRCLE('',#1630,27.);
#1650=EDGE_CURVE('',#1480,#1570,#1640,.T.);
#1660=ORIENTED_EDGE('',*,*,#1650,.T.);
#1670=EDGE_LOOP('',(#1660,#1590,#1510,#1500));
#1680=FACE_OUTER_BOUND('',#1670,.T.);
#1690=ADVANCED_FACE('',(#1680),#1420,.T.);
#1700=CARTESIAN_POINT('',(70.739901,17.1183362076631,-41.8522566640086))
;
#1710=DIRECTION('',(-1.,0.,0.));
#1720=DIRECTION('',(0.,1.,0.));
#1730=AXIS2_PLACEMENT_3D('',#1700,#1710,#1720);
#1740=PLANE('',#1730);
#1750=EDGE_CURVE('',#1570,#1480,#1640,.T.);
#1760=ORIENTED_EDGE('',*,*,#1750,.F.);
#1770=ORIENTED_EDGE('',*,*,#1650,.F.);
#1780=EDGE_LOOP('',(#1770,#1760));
#1790=FACE_OUTER_BOUND('',#1780,.T.);
#1800=ADVANCED_FACE('',(#1790),#1740,.T.);
#1810=ORIENTED_EDGE('',*,*,#1490,.T.);
#1820=ORIENTED_EDGE('',*,*,#1750,.T.);
#1830=ORIENTED_EDGE('',*,*,#1580,.F.);
#1840=ORIENTED_EDGE('',*,*,#1330,.T.);
#1850=EDGE_LOOP('',(#1840,#1830,#1820,#1810));
#1860=FACE_OUTER_BOUND('',#1850,.T.);
#1870=ADVANCED_FACE('',(#1860),#1420,.T.);
#1880=ORIENTED_EDGE('',*,*,#1170,.F.);
#1890=ORIENTED_EDGE('',*,*,#1000,.T.);
#1900=ORIENTED_EDGE('',*,*,#680,.T.);
#1910=ORIENTED_EDGE('',*,*,#910,.F.);
#1920=EDGE_LOOP('',(#1910,#1900,#1890,#1880));
#1930=FACE_OUTER_BOUND('',#1920,.T.);
#1940=ADVANCED_FACE('',(#1930),#840,.T.);
#1950=ORIENTED_EDGE('',*,*,#330,.F.);
#1960=ORIENTED_EDGE('',*,*,#740,.T.);
#1970=ORIENTED_EDGE('',*,*,#420,.T.);
#1980=ORIENTED_EDGE('',*,*,#170,.F.);
#1990=EDGE_LOOP('',(#1980,#1970,#1960,#1950));
#2000=FACE_OUTER_BOUND('',#1990,.T.);
#2010=ADVANCED_FACE('',(#2000),#260,.F.);
#2020=CLOSED_SHELL('',(#210,#530,#790,#1110,#1370,#1690,#1800,#1870,
#1940,#2010));
#2030=MANIFOLD_SOLID_BREP('',#2020);
#2040=CARTESIAN_POINT('',(0.,0.,0.));
#2050=DIRECTION('',(0.,0.,1.));
#2060=DIRECTION('',(1.,0.,0.));
#2070=AXIS2_PLACEMENT_3D('',#2040,#2050,#2060);
#2080=APPLICATION_CONTEXT(' ');
#2090=APPLICATION_PROTOCOL_DEFINITION(' ','automotive_design',1998,#2080
);
#2100=PRODUCT_CONTEXT('',#2080,'mechanical');
#2110=PRODUCT_DEFINITION_CONTEXT('part definition',#2080,'design');
#2120=PRODUCT('FN1-15','FN1-15','',(#2100));
#2130=PRODUCT_RELATED_PRODUCT_CATEGORY('part',' ',(#2120));
#2140=PRODUCT_DEFINITION_FORMATION_WITH_SPECIFIED_SOURCE('','',#2120,
.BOUGHT.);
#2150=PRODUCT_DEFINITION('',' ',#2140,#2110);
#2160=PRODUCT_DEFINITION_SHAPE('','',#2150);
#2170=DIMENSIONAL_EXPONENTS(1.,0.,0.,0.,0.,0.,0.);
#2180=DIMENSIONAL_EXPONENTS(0.,0.,0.,0.,0.,0.,0.);
#2190=DIMENSIONAL_EXPONENTS(0.,0.,0.,0.,0.,0.,0.);
#2200=(LENGTH_UNIT() NAMED_UNIT(*) SI_UNIT(.MILLI.,.METRE.));
#2210=(NAMED_UNIT(*) PLANE_ANGLE_UNIT() SI_UNIT($,.RADIAN.));
#2220=(NAMED_UNIT(*) SI_UNIT($,.STERADIAN.) SOLID_ANGLE_UNIT());
#2230=(GEOMETRIC_REPRESENTATION_CONTEXT(3) 
GLOBAL_UNCERTAINTY_ASSIGNED_CONTEXT((#2240)) 
GLOBAL_UNIT_ASSIGNED_CONTEXT((#2200,#2210,#2220)) REPRESENTATION_CONTEXT
('',''));
#2240=UNCERTAINTY_MEASURE_WITH_UNIT(LENGTH_MEASURE(1.E-6),#2200,
'distance_accuracy_value','maximum gap value');
#2250=ADVANCED_BREP_SHAPE_REPRESENTATION('',(#2070,#2030),#2230);
#2260=SHAPE_DEFINITION_REPRESENTATION(#2160,#2250);
#2270=COLOUR_RGB('',0.600000023841858,0.600000023841858,
0.600000023841858);
#2280=FILL_AREA_STYLE_COLOUR('',#2270);
#2290=FILL_AREA_STYLE('',(#2280));
#2300=SURFACE_STYLE_FILL_AREA(#2290);
#2310=SURFACE_SIDE_STYLE('',(#2300));
#2320=SURFACE_STYLE_USAGE(.BOTH.,#2310);
#2330=PRESENTATION_STYLE_ASSIGNMENT((#2320));
#2340=STYLED_ITEM('',(#2330),#2030);
#2350=DRAUGHTING_MODEL('',(#2340),#2230);
#2360=CARTESIAN_POINT('',(0.,0.,0.));
#2370=DIRECTION('',(0.,0.,1.));
#2380=DIRECTION('',(1.,0.,0.));
#2390=AXIS2_PLACEMENT_3D('',#2360,#2370,#2380);
#2400=ITEM_DEFINED_TRANSFORMATION('FN1-15','',#2070,#2390);
#2410=CARTESIAN_POINT('',(59.239901,54.933052,0.));
#2420=DIRECTION('',(1.,0.,0.));
#2430=DIRECTION('',(0.,-1.,0.));
#2440=AXIS2_PLACEMENT_3D('',#2410,#2420,#2430);
#2450=PLANE('',#2440);
#2460=CARTESIAN_POINT('',(59.239901,46.433052,0.));
#2470=DIRECTION('',(1.,0.,0.));
#2480=DIRECTION('',(0.,1.,0.));
#2490=AXIS2_PLACEMENT_3D('',#2460,#2470,#2480);
#2500=CIRCLE('',#2490,9.);
#2510=CARTESIAN_POINT('',(59.239901,55.433052,-1.10218211923262E-15));
#2520=VERTEX_POINT('',#2510);
#2530=CARTESIAN_POINT('',(59.239901,37.433052,0.));
#2540=VERTEX_POINT('',#2530);
#2550=EDGE_CURVE('',#2520,#2540,#2500,.T.);
#2560=ORIENTED_EDGE('',*,*,#2550,.F.);
#2570=EDGE_CURVE('',#2540,#2520,#2500,.T.);
#2580=ORIENTED_EDGE('',*,*,#2570,.F.);
#2590=EDGE_LOOP('',(#2580,#2560));
#2600=FACE_OUTER_BOUND('',#2590,.T.);
#2610=CARTESIAN_POINT('',(59.239901,46.433052,0.));
#2620=DIRECTION('',(-1.,0.,0.));
#2630=DIRECTION('',(0.,-1.,0.));
#2640=AXIS2_PLACEMENT_3D('',#2610,#2620,#2630);
#2650=CIRCLE('',#2640,8.);
#2660=CARTESIAN_POINT('',(59.239901,38.433052,0.));
#2670=VERTEX_POINT('',#2660);
#2680=CARTESIAN_POINT('',(59.239901,54.433052,9.79717439317883E-16));
#2690=VERTEX_POINT('',#2680);
#2700=EDGE_CURVE('',#2670,#2690,#2650,.T.);
#2710=ORIENTED_EDGE('',*,*,#2700,.F.);
#2720=EDGE_CURVE('',#2690,#2670,#2650,.T.);
#2730=ORIENTED_EDGE('',*,*,#2720,.F.);
#2740=EDGE_LOOP('',(#2730,#2710));
#2750=FACE_BOUND('',#2740,.T.);
#2760=ADVANCED_FACE('',(#2600,#2750),#2450,.F.);
#2770=CARTESIAN_POINT('',(64.239901,48.8567199443163,-3.23285142992637))
;
#2780=DIRECTION('',(-1.,0.,0.));
#2790=DIRECTION('',(0.,-1.,0.));
#2800=AXIS2_PLACEMENT_3D('',#2770,#2780,#2790);
#2810=PLANE('',#2800);
#2820=CARTESIAN_POINT('',(64.239901,46.433052,0.));
#2830=DIRECTION('',(-1.,0.,0.));
#2840=DIRECTION('',(0.,-1.,0.));
#2850=AXIS2_PLACEMENT_3D('',#2820,#2830,#2840);
#2860=CIRCLE('',#2850,8.);
#2870=CARTESIAN_POINT('',(64.239901,38.433052,0.));
#2880=VERTEX_POINT('',#2870);
#2890=CARTESIAN_POINT('',(64.239901,54.433052,9.79717439317883E-16));
#2900=VERTEX_POINT('',#2890);
#2910=EDGE_CURVE('',#2880,#2900,#2860,.T.);
#2920=ORIENTED_EDGE('',*,*,#2910,.T.);
#2930=EDGE_CURVE('',#2900,#2880,#2860,.T.);
#2940=ORIENTED_EDGE('',*,*,#2930,.T.);
#2950=EDGE_LOOP('',(#2940,#2920));
#2960=FACE_OUTER_BOUND('',#2950,.T.);
#2970=ADVANCED_FACE('',(#2960),#2810,.T.);
#2980=CARTESIAN_POINT('',(66.739901,46.433052,0.));
#2990=DIRECTION('',(1.,0.,0.));
#3000=DIRECTION('',(0.,-1.,0.));
#3010=AXIS2_PLACEMENT_3D('',#2980,#2990,#3000);
#3020=CYLINDRICAL_SURFACE('',#3010,27.);
#3030=CARTESIAN_POINT('',(66.739901,19.433052,0.));
#3040=DIRECTION('',(1.,0.,0.));
#3050=VECTOR('',#3040,1.);
#3060=LINE('',#3030,#3050);
#3070=CARTESIAN_POINT('',(64.239901,19.433052,0.));
#3080=VERTEX_POINT('',#3070);
#3090=CARTESIAN_POINT('',(70.739901,19.433052,0.));
#3100=VERTEX_POINT('',#3090);
#3110=EDGE_CURVE('',#3080,#3100,#3060,.T.);
#3120=ORIENTED_EDGE('',*,*,#3110,.F.);
#3130=CARTESIAN_POINT('',(70.739901,46.433052,0.));
#3140=DIRECTION('',(1.,0.,0.));
#3150=DIRECTION('',(0.,-1.,0.));
#3160=AXIS2_PLACEMENT_3D('',#3130,#3140,#3150);
#3170=CIRCLE('',#3160,27.);
#3180=CARTESIAN_POINT('',(70.739901,73.433052,-3.30654635769785E-15));
#3190=VERTEX_POINT('',#3180);
#3200=EDGE_CURVE('',#3100,#3190,#3170,.T.);
#3210=ORIENTED_EDGE('',*,*,#3200,.F.);
#3220=CARTESIAN_POINT('',(66.739901,73.433052,-3.30654635769785E-15));
#3230=DIRECTION('',(1.,0.,0.));
#3240=VECTOR('',#3230,1.);
#3250=LINE('',#3220,#3240);
#3260=CARTESIAN_POINT('',(64.239901,73.433052,-3.30654635769785E-15));
#3270=VERTEX_POINT('',#3260);
#3280=EDGE_CURVE('',#3270,#3190,#3250,.T.);
#3290=ORIENTED_EDGE('',*,*,#3280,.T.);
#3300=CARTESIAN_POINT('',(64.239901,46.433052,0.));
#3310=DIRECTION('',(1.,0.,0.));
#3320=DIRECTION('',(0.,1.,0.));
#3330=AXIS2_PLACEMENT_3D('',#3300,#3310,#3320);
#3340=CIRCLE('',#3330,27.);
#3350=EDGE_CURVE('',#3080,#3270,#3340,.T.);
#3360=ORIENTED_EDGE('',*,*,#3350,.T.);
#3370=EDGE_LOOP('',(#3360,#3290,#3210,#3120));
#3380=FACE_OUTER_BOUND('',#3370,.T.);
#3390=ADVANCED_FACE('',(#3380),#3020,.T.);
#3400=CARTESIAN_POINT('',(64.239901,64.433052,0.));
#3410=DIRECTION('',(1.,0.,0.));
#3420=DIRECTION('',(0.,-1.,0.));
#3430=AXIS2_PLACEMENT_3D('',#3400,#3410,#3420);
#3440=PLANE('',#3430);
#3450=CARTESIAN_POINT('',(64.239901,46.433052,0.));
#3460=DIRECTION('',(1.,0.,0.));
#3470=DIRECTION('',(0.,1.,0.));
#3480=AXIS2_PLACEMENT_3D('',#3450,#3460,#3470);
#3490=CIRCLE('',#3480,9.);
#3500=CARTESIAN_POINT('',(64.239901,37.433052,0.));
#3510=VERTEX_POINT('',#3500);
#3520=CARTESIAN_POINT('',(64.239901,55.433052,-1.10218211923262E-15));
#3530=VERTEX_POINT('',#3520);
#3540=EDGE_CURVE('',#3510,#3530,#3490,.T.);
#3550=ORIENTED_EDGE('',*,*,#3540,.T.);
#3560=EDGE_CURVE('',#3530,#3510,#3490,.T.);
#3570=ORIENTED_EDGE('',*,*,#3560,.T.);
#3580=EDGE_LOOP('',(#3570,#3550));
#3590=FACE_BOUND('',#3580,.T.);
#3600=EDGE_CURVE('',#3270,#3080,#3340,.T.);
#3610=ORIENTED_EDGE('',*,*,#3600,.F.);
#3620=ORIENTED_EDGE('',*,*,#3350,.F.);
#3630=EDGE_LOOP('',(#3620,#3610));
#3640=FACE_OUTER_BOUND('',#3630,.T.);
#3650=ADVANCED_FACE('',(#3590,#3640),#3440,.F.);
#3660=CARTESIAN_POINT('',(61.739901,46.433052,0.));
#3670=DIRECTION('',(1.,0.,0.));
#3680=DIRECTION('',(0.,-1.,0.));
#3690=AXIS2_PLACEMENT_3D('',#3660,#3670,#3680);
#3700=CYLINDRICAL_SURFACE('',#3690,9.);
#3710=CARTESIAN_POINT('',(61.739901,37.433052,0.));
#3720=DIRECTION('',(1.,0.,0.));
#3730=VECTOR('',#3720,1.);
#3740=LINE('',#3710,#3730);
#3750=EDGE_CURVE('',#2540,#3510,#3740,.T.);
#3760=ORIENTED_EDGE('',*,*,#3750,.T.);
#3770=ORIENTED_EDGE('',*,*,#2550,.T.);
#3780=CARTESIAN_POINT('',(61.739901,55.433052,-1.10218211923262E-15));
#3790=DIRECTION('',(1.,0.,0.));
#3800=VECTOR('',#3790,1.);
#3810=LINE('',#3780,#3800);
#3820=EDGE_CURVE('',#2520,#3530,#3810,.T.);
#3830=ORIENTED_EDGE('',*,*,#3820,.F.);
#3840=ORIENTED_EDGE('',*,*,#3560,.F.);
#3850=EDGE_LOOP('',(#3840,#3830,#3770,#3760));
#3860=FACE_OUTER_BOUND('',#3850,.T.);
#3870=ADVANCED_FACE('',(#3860),#3700,.T.);
#3880=CARTESIAN_POINT('',(59.239901,46.433052,0.));
#3890=DIRECTION('',(-1.,0.,0.));
#3900=DIRECTION('',(0.,-1.,0.));
#3910=AXIS2_PLACEMENT_3D('',#3880,#3890,#3900);
#3920=CYLINDRICAL_SURFACE('',#3910,8.);
#3930=CARTESIAN_POINT('',(59.239901,38.433052,0.));
#3940=DIRECTION('',(-1.,0.,0.));
#3950=VECTOR('',#3940,1.);
#3960=LINE('',#3930,#3950);
#3970=EDGE_CURVE('',#2880,#2670,#3960,.T.);
#3980=ORIENTED_EDGE('',*,*,#3970,.F.);
#3990=ORIENTED_EDGE('',*,*,#2720,.T.);
#4000=CARTESIAN_POINT('',(59.239901,54.433052,9.79717439317883E-16));
#4010=DIRECTION('',(-1.,0.,0.));
#4020=VECTOR('',#4010,1.);
#4030=LINE('',#4000,#4020);
#4040=EDGE_CURVE('',#2900,#2690,#4030,.T.);
#4050=ORIENTED_EDGE('',*,*,#4040,.T.);
#4060=ORIENTED_EDGE('',*,*,#2930,.F.);
#4070=EDGE_LOOP('',(#4060,#4050,#3990,#3980));
#4080=FACE_OUTER_BOUND('',#4070,.T.);
#4090=ADVANCED_FACE('',(#4080),#3920,.F.);
#4100=CARTESIAN_POINT('',(70.739901,17.1183362076631,-41.8522566640086))
;
#4110=DIRECTION('',(-1.,0.,0.));
#4120=DIRECTION('',(0.,1.,0.));
#4130=AXIS2_PLACEMENT_3D('',#4100,#4110,#4120);
#4140=PLANE('',#4130);
#4150=ORIENTED_EDGE('',*,*,#3200,.T.);
#4160=EDGE_CURVE('',#3190,#3100,#3170,.T.);
#4170=ORIENTED_EDGE('',*,*,#4160,.T.);
#4180=EDGE_LOOP('',(#4170,#4150));
#4190=FACE_OUTER_BOUND('',#4180,.T.);
#4200=ADVANCED_FACE('',(#4190),#4140,.F.);
#4210=ORIENTED_EDGE('',*,*,#2700,.T.);
#4220=ORIENTED_EDGE('',*,*,#3970,.T.);
#4230=ORIENTED_EDGE('',*,*,#2910,.F.);
#4240=ORIENTED_EDGE('',*,*,#4040,.F.);
#4250=EDGE_LOOP('',(#4240,#4230,#4220,#4210));
#4260=FACE_OUTER_BOUND('',#4250,.T.);
#4270=ADVANCED_FACE('',(#4260),#3920,.F.);
#4280=ORIENTED_EDGE('',*,*,#3110,.T.);
#4290=ORIENTED_EDGE('',*,*,#3600,.T.);
#4300=ORIENTED_EDGE('',*,*,#3280,.F.);
#4310=ORIENTED_EDGE('',*,*,#4160,.F.);
#4320=EDGE_LOOP('',(#4310,#4300,#4290,#4280));
#4330=FACE_OUTER_BOUND('',#4320,.T.);
#4340=ADVANCED_FACE('',(#4330),#3020,.T.);
#4350=ORIENTED_EDGE('',*,*,#3750,.F.);
#4360=ORIENTED_EDGE('',*,*,#3540,.F.);
#4370=ORIENTED_EDGE('',*,*,#3820,.T.);
#4380=ORIENTED_EDGE('',*,*,#2570,.T.);
#4390=EDGE_LOOP('',(#4380,#4370,#4360,#4350));
#4400=FACE_OUTER_BOUND('',#4390,.T.);
#4410=ADVANCED_FACE('',(#4400),#3700,.T.);
#4420=CLOSED_SHELL('',(#2760,#2970,#3390,#3650,#3870,#4090,#4200,#4270,
#4340,#4410));
#4430=MANIFOLD_SOLID_BREP('',#4420);
#4440=APPLICATION_CONTEXT(' ');
#4450=APPLICATION_PROTOCOL_DEFINITION(' ','automotive_design',1998,#4440
);
#4460=PRODUCT_CONTEXT('',#4440,'mechanical');
#4470=PRODUCT_DEFINITION_CONTEXT('part definition',#4440,'design');
#4480=PRODUCT('FG1-15','FG1-15','',(#4460));
#4490=PRODUCT_RELATED_PRODUCT_CATEGORY('part',' ',(#4480));
#4500=PRODUCT_DEFINITION_FORMATION_WITH_SPECIFIED_SOURCE('','',#4480,
.BOUGHT.);
#4510=PRODUCT_DEFINITION('',' ',#4500,#4470);
#4520=PRODUCT_DEFINITION_SHAPE('','',#4510);
#4530=DIMENSIONAL_EXPONENTS(1.,0.,0.,0.,0.,0.,0.);
#4540=DIMENSIONAL_EXPONENTS(0.,0.,0.,0.,0.,0.,0.);
#4550=DIMENSIONAL_EXPONENTS(0.,0.,0.,0.,0.,0.,0.);
#4560=(LENGTH_UNIT() NAMED_UNIT(*) SI_UNIT(.MILLI.,.METRE.));
#4570=(NAMED_UNIT(*) PLANE_ANGLE_UNIT() SI_UNIT($,.RADIAN.));
#4580=(NAMED_UNIT(*) SI_UNIT($,.STERADIAN.) SOLID_ANGLE_UNIT());
#4590=(GEOMETRIC_REPRESENTATION_CONTEXT(3) 
GLOBAL_UNCERTAINTY_ASSIGNED_CONTEXT((#4600)) 
GLOBAL_UNIT_ASSIGNED_CONTEXT((#4560,#4570,#4580)) REPRESENTATION_CONTEXT
('',''));
#4600=UNCERTAINTY_MEASURE_WITH_UNIT(LENGTH_MEASURE(1.E-6),#4560,
'distance_accuracy_value','maximum gap value');
#4610=ADVANCED_BREP_SHAPE_REPRESENTATION('',(#2070,#4430),#4590);
#4620=SHAPE_DEFINITION_REPRESENTATION(#4520,#4610);
#4630=COLOUR_RGB('',0.600000023841858,0.600000023841858,
0.600000023841858);
#4640=FILL_AREA_STYLE_COLOUR('',#4630);
#4650=FILL_AREA_STYLE('',(#4640));
#4660=SURFACE_STYLE_FILL_AREA(#4650);
#4670=SURFACE_SIDE_STYLE('',(#4660));
#4680=SURFACE_STYLE_USAGE(.BOTH.,#4670);
#4690=PRESENTATION_STYLE_ASSIGNMENT((#4680));
#4700=STYLED_ITEM('',(#4690),#4430);
#4710=DRAUGHTING_MODEL('',(#4700),#4590);
#4720=CARTESIAN_POINT('',(0.,0.,0.));
#4730=DIRECTION('',(0.,0.,1.));
#4740=DIRECTION('',(1.,0.,0.));
#4750=AXIS2_PLACEMENT_3D('',#4720,#4730,#4740);
#4760=ITEM_DEFINED_TRANSFORMATION('FG1-15','',#2070,#4750);
#4770=APPLICATION_CONTEXT(' ');
#4780=APPLICATION_PROTOCOL_DEFINITION(' ','automotive_design',1998,#4770
);
#4790=PRODUCT_CONTEXT('',#4770,'mechanical');
#4800=PRODUCT_DEFINITION_CONTEXT('part definition',#4770,'design');
#4810=PRODUCT('FGN1-15.stp','FGN1-15.stp','',(#4790));
#4820=PRODUCT_RELATED_PRODUCT_CATEGORY('part',' ',(#4810));
#4830=PRODUCT_DEFINITION_FORMATION_WITH_SPECIFIED_SOURCE('','',#4810,
.BOUGHT.);
#4840=PRODUCT_DEFINITION('',' ',#4830,#4800);
#4850=PRODUCT_DEFINITION_SHAPE('','',#4840);
#4860=DIMENSIONAL_EXPONENTS(1.,0.,0.,0.,0.,0.,0.);
#4870=DIMENSIONAL_EXPONENTS(0.,0.,0.,0.,0.,0.,0.);
#4880=DIMENSIONAL_EXPONENTS(0.,0.,0.,0.,0.,0.,0.);
#4890=(LENGTH_UNIT() NAMED_UNIT(*) SI_UNIT(.MILLI.,.METRE.));
#4900=(NAMED_UNIT(*) PLANE_ANGLE_UNIT() SI_UNIT($,.RADIAN.));
#4910=(NAMED_UNIT(*) SI_UNIT($,.STERADIAN.) SOLID_ANGLE_UNIT());
#4920=(GEOMETRIC_REPRESENTATION_CONTEXT(3) 
GLOBAL_UNCERTAINTY_ASSIGNED_CONTEXT((#4930)) 
GLOBAL_UNIT_ASSIGNED_CONTEXT((#4890,#4900,#4910)) REPRESENTATION_CONTEXT
('',''));
#4930=UNCERTAINTY_MEASURE_WITH_UNIT(LENGTH_MEASURE(1.E-6),#4890,
'distance_accuracy_value','maximum gap value');
#4940=SHAPE_REPRESENTATION('',(#2070,#4750,#2390),#4920);
#4950=SHAPE_DEFINITION_REPRESENTATION(#4850,#4940);
#4960=(REPRESENTATION_RELATIONSHIP('','',#4610,#4940) 
REPRESENTATION_RELATIONSHIP_WITH_TRANSFORMATION(#4760) 
SHAPE_REPRESENTATION_RELATIONSHIP());
#4970=NEXT_ASSEMBLY_USAGE_OCCURRENCE('1','','FG1-15',#4840,#4510,'');
#4980=PRODUCT_DEFINITION_SHAPE('','',#4970);
#4990=CONTEXT_DEPENDENT_SHAPE_REPRESENTATION(#4960,#4980);
#5000=(REPRESENTATION_RELATIONSHIP('','',#2250,#4940) 
REPRESENTATION_RELATIONSHIP_WITH_TRANSFORMATION(#2400) 
SHAPE_REPRESENTATION_RELATIONSHIP());
#5010=NEXT_ASSEMBLY_USAGE_OCCURRENCE('2','','FN1-15',#4840,#2150,'');
#5020=PRODUCT_DEFINITION_SHAPE('','',#5010);
#5030=CONTEXT_DEPENDENT_SHAPE_REPRESENTATION(#5000,#5020);
ENDSEC;
END-ISO-10303-21;
