ISO-10303-21;
HEADER;
/****************************************************************
 * Generated by software with PDE/Lib inside                    *
 * PDElib Version v51a, created Thu 12/14/2006                  *
 * International Technegroup Inc. (www.iti-oh.com)              *
 ****************************************************************/
FILE_DESCRIPTION((''),'2;1');
FILE_NAME('T:\\Arbeitspl\S\dtze\\Aushilfe\\KPeters\\3D\\Steps 08_10\\47820\\47820025X.stp','2010-09-06T13:48:00',('thilbrands'),(''),'Autodesk Inventor 2008','Autodesk Inventor 2008','');
FILE_SCHEMA(('AUTOMOTIVE_DESIGN { 1 0 10303 214 1 1 1 1 }'));
ENDSEC;
DATA;
#5=APPLICATION_CONTEXT('automotive design');
#6=APPLICATION_PROTOCOL_DEFINITION('International Standard','automotive_design',2001,#5);
#7=PRODUCT_CONTEXT('',#5,'mechanical');
#8=PRODUCT('478200151','478200151',$,(#7));
#9=PRODUCT_RELATED_PRODUCT_CATEGORY('part',$,(#8));
#10=PRODUCT_DEFINITION_FORMATION('',$,#8);
#11=PRODUCT_DEFINITION_CONTEXT('part definition',#5,'design');
#12=PRODUCT_DEFINITION('',$,#10,#11);
#18=(NAMED_UNIT(*)PLANE_ANGLE_UNIT()SI_UNIT($,.RADIAN.));
#19=DIMENSIONAL_EXPONENTS(0.0,0.0,0.0,0.0,0.0,0.0,0.0);
#20=PLANE_ANGLE_MEASURE_WITH_UNIT(PLANE_ANGLE_MEASURE(0.017453292500000),#18);
#24=(CONVERSION_BASED_UNIT('DEGREE',#20)NAMED_UNIT(#19)PLANE_ANGLE_UNIT());
#28=(NAMED_UNIT(*)SI_UNIT($,.STERADIAN.)SOLID_ANGLE_UNIT());
#32=(LENGTH_UNIT()NAMED_UNIT(*)SI_UNIT(.MILLI.,.METRE.));
#34=UNCERTAINTY_MEASURE_WITH_UNIT(LENGTH_MEASURE(0.010000000000000),#32,'DISTANCE_ACCURACY_VALUE','');
#36=(GEOMETRIC_REPRESENTATION_CONTEXT(3)GLOBAL_UNCERTAINTY_ASSIGNED_CONTEXT((#34))GLOBAL_UNIT_ASSIGNED_CONTEXT((#24,#28,#32))REPRESENTATION_CONTEXT('None','None'));
#37=AXIS2_PLACEMENT_3D('',#38,#39,#40);
#38=CARTESIAN_POINT('',(0.0,0.0,0.0));
#39=DIRECTION('',(0.0,0.0,1.0));
#40=DIRECTION('',(1.0,0.0,0.0));
#41=SHAPE_REPRESENTATION('',(#37),#36);
#42=PRODUCT_DEFINITION_SHAPE('','',#12);
#43=SHAPE_DEFINITION_REPRESENTATION(#42,#41);
#49=(NAMED_UNIT(*)PLANE_ANGLE_UNIT()SI_UNIT($,.RADIAN.));
#50=DIMENSIONAL_EXPONENTS(0.0,0.0,0.0,0.0,0.0,0.0,0.0);
#51=PLANE_ANGLE_MEASURE_WITH_UNIT(PLANE_ANGLE_MEASURE(0.017453292500000),#49);
#55=(CONVERSION_BASED_UNIT('DEGREE',#51)NAMED_UNIT(#50)PLANE_ANGLE_UNIT());
#59=(NAMED_UNIT(*)SI_UNIT($,.STERADIAN.)SOLID_ANGLE_UNIT());
#63=(LENGTH_UNIT()NAMED_UNIT(*)SI_UNIT(.MILLI.,.METRE.));
#65=UNCERTAINTY_MEASURE_WITH_UNIT(LENGTH_MEASURE(0.000001000000000),#63,'DISTANCE_ACCURACY_VALUE','');
#67=(GEOMETRIC_REPRESENTATION_CONTEXT(3)GLOBAL_UNCERTAINTY_ASSIGNED_CONTEXT((#65))GLOBAL_UNIT_ASSIGNED_CONTEXT((#55,#59,#63))REPRESENTATION_CONTEXT('','3D'));
#68=CARTESIAN_POINT('',(13.000000000000004,-1.591988E-015,-50.0));
#69=CARTESIAN_POINT('',(13.000000000000004,-1.591988E-015,0.0));
#70=CARTESIAN_POINT('',(12.999999999999998,-13.000000000000002,-50.0));
#71=CARTESIAN_POINT('',(12.999999999999998,-13.000000000000002,0.0));
#72=CARTESIAN_POINT('',(-1.591988E-015,-13.000000000000004,-50.0));
#73=CARTESIAN_POINT('',(-1.591988E-015,-13.000000000000004,0.0));
#74=CARTESIAN_POINT('',(-13.000000000000002,-12.999999999999998,-50.0));
#75=CARTESIAN_POINT('',(-13.000000000000002,-12.999999999999998,0.0));
#76=CARTESIAN_POINT('',(-13.000000000000004,1.591988E-015,-50.0));
#77=CARTESIAN_POINT('',(-13.000000000000004,1.591988E-015,0.0));
#78=CARTESIAN_POINT('',(-12.999999999999998,13.000000000000002,-50.0));
#79=CARTESIAN_POINT('',(-12.999999999999998,13.000000000000002,0.0));
#80=CARTESIAN_POINT('',(1.591988E-015,13.000000000000004,-50.0));
#81=CARTESIAN_POINT('',(1.591988E-015,13.000000000000004,0.0));
#82=CARTESIAN_POINT('',(13.000000000000002,12.999999999999998,-50.0));
#83=CARTESIAN_POINT('',(13.000000000000002,12.999999999999998,0.0));
#84=CARTESIAN_POINT('',(13.000000000000004,-1.591988E-015,-50.0));
#85=CARTESIAN_POINT('',(13.000000000000004,-1.591988E-015,0.0));
#93=(BOUNDED_SURFACE()B_SPLINE_SURFACE(1,2,((#68,#70,#72,#74,#76,#78,#80,#82,#84),(#69,#71,#73,#75,#77,#79,#81,#83,#85)),.UNSPECIFIED.,.F.,.T.,.U.)B_SPLINE_SURFACE_WITH_KNOTS((2,2),(3,2,2,2,3),(0.0,3.846153846153845),(0.0,20.420352248333661,40.840704496667321,61.261056745000985,81.681408993334642),.UNSPECIFIED.)GEOMETRIC_REPRESENTATION_ITEM()RATIONAL_B_SPLINE_SURFACE(((1.0,0.707106781186548,1.0,0.707106781186548,1.0,0.707106781186548,1.0,0.707106781186548,1.0),(1.0,0.707106781186548,1.0,0.707106781186548,1.0,0.707106781186548,1.0,0.707106781186548,1.0)))REPRESENTATION_ITEM('')SURFACE());
#94=CARTESIAN_POINT('',(0.0,-13.000000000000004,0.0));
#95=VERTEX_POINT('',#94);
#96=CARTESIAN_POINT('',(0.0,13.000000000000004,0.0));
#97=VERTEX_POINT('',#96);
#98=CARTESIAN_POINT('',(0.0,0.0,0.0));
#99=DIRECTION('',(0.707106781186547,0.0,-0.707106781186547));
#100=DIRECTION('',(-0.707106781186547,0.0,-0.707106781186547));
#101=AXIS2_PLACEMENT_3D('',#98,#99,#100);
#102=ELLIPSE('',#101,18.384776310850238,13.000000000000005);
#103=EDGE_CURVE('',#95,#97,#102,.T.);
#104=ORIENTED_EDGE('',*,*,#103,.F.);
#105=CARTESIAN_POINT('',(0.0,0.0,0.0));
#106=DIRECTION('',(-0.707106781186547,0.0,-0.707106781186547));
#107=DIRECTION('',(-0.707106781186547,0.0,0.707106781186547));
#108=AXIS2_PLACEMENT_3D('',#105,#106,#107);
#109=ELLIPSE('',#108,18.384776310850238,13.000000000000005);
#110=EDGE_CURVE('',#97,#95,#109,.T.);
#111=ORIENTED_EDGE('',*,*,#110,.F.);
#112=EDGE_LOOP('',(#104,#111));
#113=FACE_OUTER_BOUND('',#112,.T.);
#114=CARTESIAN_POINT('',(13.000000000000004,1.592041E-015,-50.0));
#115=VERTEX_POINT('',#114);
#116=CARTESIAN_POINT('',(0.0,0.0,-50.0));
#117=DIRECTION('',(0.0,0.0,1.0));
#118=DIRECTION('',(-1.0,0.0,0.0));
#119=AXIS2_PLACEMENT_3D('',#116,#117,#118);
#120=CIRCLE('',#119,13.000000000000004);
#121=EDGE_CURVE('',#115,#115,#120,.T.);
#122=ORIENTED_EDGE('',*,*,#121,.F.);
#123=EDGE_LOOP('',(#122));
#124=FACE_BOUND('',#123,.T.);
#125=ADVANCED_FACE('',(#113,#124),#93,.F.);
#126=CARTESIAN_POINT('',(0.0,0.0,0.0));
#127=DIRECTION('',(-1.0,0.0,0.0));
#128=DIRECTION('',(0.0,-1.0,0.0));
#129=AXIS2_PLACEMENT_3D('',#126,#127,#128);
#130=CYLINDRICAL_SURFACE('',#129,13.000000000000004);
#131=ORIENTED_EDGE('',*,*,#103,.T.);
#132=CARTESIAN_POINT('',(0.0,0.0,0.0));
#133=DIRECTION('',(0.707106781186547,0.0,0.707106781186547));
#134=DIRECTION('',(-0.707106781186547,0.0,0.707106781186547));
#135=AXIS2_PLACEMENT_3D('',#132,#133,#134);
#136=ELLIPSE('',#135,18.384776310850238,13.000000000000005);
#137=EDGE_CURVE('',#97,#95,#136,.T.);
#138=ORIENTED_EDGE('',*,*,#137,.T.);
#139=EDGE_LOOP('',(#131,#138));
#140=FACE_OUTER_BOUND('',#139,.T.);
#141=CARTESIAN_POINT('',(-50.0,-13.000000000000004,0.0));
#142=VERTEX_POINT('',#141);
#143=CARTESIAN_POINT('',(-50.0,0.0,0.0));
#144=DIRECTION('',(-1.0,0.0,0.0));
#145=DIRECTION('',(0.0,-1.0,0.0));
#146=AXIS2_PLACEMENT_3D('',#143,#144,#145);
#147=CIRCLE('',#146,13.000000000000004);
#148=EDGE_CURVE('',#142,#142,#147,.T.);
#149=ORIENTED_EDGE('',*,*,#148,.T.);
#150=EDGE_LOOP('',(#149));
#151=FACE_BOUND('',#150,.T.);
#152=ADVANCED_FACE('',(#140,#151),#130,.F.);
#153=CARTESIAN_POINT('',(0.0,0.0,0.0));
#154=DIRECTION('',(-1.0,0.0,0.0));
#155=DIRECTION('',(0.0,-1.0,0.0));
#156=AXIS2_PLACEMENT_3D('',#153,#154,#155);
#157=CYLINDRICAL_SURFACE('',#156,13.000000000000004);
#158=CARTESIAN_POINT('',(50.0,-13.000000000000004,0.0));
#159=VERTEX_POINT('',#158);
#160=CARTESIAN_POINT('',(50.0,0.0,0.0));
#161=DIRECTION('',(-1.0,0.0,0.0));
#162=DIRECTION('',(0.0,-1.0,0.0));
#163=AXIS2_PLACEMENT_3D('',#160,#161,#162);
#164=CIRCLE('',#163,13.000000000000004);
#165=EDGE_CURVE('',#159,#159,#164,.T.);
#166=ORIENTED_EDGE('',*,*,#165,.F.);
#167=EDGE_LOOP('',(#166));
#168=FACE_OUTER_BOUND('',#167,.T.);
#169=ORIENTED_EDGE('',*,*,#110,.T.);
#170=CARTESIAN_POINT('',(0.0,0.0,0.0));
#171=DIRECTION('',(-0.707106781186547,0.0,0.707106781186547));
#172=DIRECTION('',(-0.707106781186547,0.0,-0.707106781186547));
#173=AXIS2_PLACEMENT_3D('',#170,#171,#172);
#174=ELLIPSE('',#173,18.384776310850238,13.000000000000005);
#175=EDGE_CURVE('',#95,#97,#174,.T.);
#176=ORIENTED_EDGE('',*,*,#175,.T.);
#177=EDGE_LOOP('',(#169,#176));
#178=FACE_BOUND('',#177,.T.);
#179=ADVANCED_FACE('',(#168,#178),#157,.F.);
#180=CARTESIAN_POINT('',(14.500000000000002,-1.775679E-015,-50.0));
#181=CARTESIAN_POINT('',(14.500000000000002,-1.775679E-015,0.0));
#182=CARTESIAN_POINT('',(14.499999999999995,-14.500000000000000,-50.0));
#183=CARTESIAN_POINT('',(14.499999999999995,-14.500000000000000,0.0));
#184=CARTESIAN_POINT('',(-1.775679E-015,-14.500000000000002,-50.0));
#185=CARTESIAN_POINT('',(-1.775679E-015,-14.500000000000002,0.0));
#186=CARTESIAN_POINT('',(-14.500000000000000,-14.499999999999995,-50.0));
#187=CARTESIAN_POINT('',(-14.500000000000000,-14.499999999999995,0.0));
#188=CARTESIAN_POINT('',(-14.500000000000002,1.775679E-015,-50.0));
#189=CARTESIAN_POINT('',(-14.500000000000002,1.775679E-015,0.0));
#190=CARTESIAN_POINT('',(-14.499999999999995,14.500000000000000,-50.0));
#191=CARTESIAN_POINT('',(-14.499999999999995,14.500000000000000,0.0));
#192=CARTESIAN_POINT('',(1.775679E-015,14.500000000000002,-50.0));
#193=CARTESIAN_POINT('',(1.775679E-015,14.500000000000002,0.0));
#194=CARTESIAN_POINT('',(14.500000000000000,14.499999999999995,-50.0));
#195=CARTESIAN_POINT('',(14.500000000000000,14.499999999999995,0.0));
#196=CARTESIAN_POINT('',(14.500000000000002,-1.775679E-015,-50.0));
#197=CARTESIAN_POINT('',(14.500000000000002,-1.775679E-015,0.0));
#205=(BOUNDED_SURFACE()B_SPLINE_SURFACE(1,2,((#180,#182,#184,#186,#188,#190,#192,#194,#196),(#181,#183,#185,#187,#189,#191,#193,#195,#197)),.UNSPECIFIED.,.F.,.T.,.U.)B_SPLINE_SURFACE_WITH_KNOTS((2,2),(3,2,2,2,3),(0.0,3.448275862068965),(0.0,22.776546738526005,45.553093477052009,68.329640215578010,91.106186954104018),.UNSPECIFIED.)GEOMETRIC_REPRESENTATION_ITEM()RATIONAL_B_SPLINE_SURFACE(((1.0,0.707106781186548,1.0,0.707106781186548,1.0,0.707106781186548,1.0,0.707106781186548,1.0),(1.0,0.707106781186548,1.0,0.707106781186548,1.0,0.707106781186548,1.0,0.707106781186548,1.0)))REPRESENTATION_ITEM('')SURFACE());
#206=CARTESIAN_POINT('',(0.0,-14.500000000000002,0.0));
#207=VERTEX_POINT('',#206);
#208=CARTESIAN_POINT('',(0.0,14.500000000000002,0.0));
#209=VERTEX_POINT('',#208);
#210=CARTESIAN_POINT('',(0.0,0.0,0.0));
#211=DIRECTION('',(0.707106781186548,0.0,0.707106781186548));
#212=DIRECTION('',(-0.707106781186548,0.0,0.707106781186548));
#213=AXIS2_PLACEMENT_3D('',#210,#211,#212);
#214=ELLIPSE('',#213,20.506096654409880,14.500000000000005);
#215=EDGE_CURVE('',#207,#209,#214,.T.);
#216=ORIENTED_EDGE('',*,*,#215,.F.);
#217=CARTESIAN_POINT('',(0.0,0.0,0.0));
#218=DIRECTION('',(-0.707106781186548,0.0,0.707106781186548));
#219=DIRECTION('',(-0.707106781186548,0.0,-0.707106781186548));
#220=AXIS2_PLACEMENT_3D('',#217,#218,#219);
#221=ELLIPSE('',#220,20.506096654409880,14.500000000000005);
#222=EDGE_CURVE('',#209,#207,#221,.T.);
#223=ORIENTED_EDGE('',*,*,#222,.F.);
#224=EDGE_LOOP('',(#216,#223));
#225=FACE_OUTER_BOUND('',#224,.T.);
#226=CARTESIAN_POINT('',(14.500000000000002,1.775738E-015,-50.0));
#227=VERTEX_POINT('',#226);
#228=CARTESIAN_POINT('',(0.0,0.0,-50.0));
#229=DIRECTION('',(0.0,0.0,-1.0));
#230=DIRECTION('',(-1.0,0.0,0.0));
#231=AXIS2_PLACEMENT_3D('',#228,#229,#230);
#232=CIRCLE('',#231,14.500000000000002);
#233=EDGE_CURVE('',#227,#227,#232,.T.);
#234=ORIENTED_EDGE('',*,*,#233,.F.);
#235=EDGE_LOOP('',(#234));
#236=FACE_BOUND('',#235,.T.);
#237=ADVANCED_FACE('',(#225,#236),#205,.T.);
#238=CARTESIAN_POINT('',(14.500000000000002,14.500000000000002,-50.0));
#239=CARTESIAN_POINT('',(-14.500000000000002,14.500000000000002,-50.0));
#240=CARTESIAN_POINT('',(14.500000000000002,-14.500000000000002,-50.0));
#241=CARTESIAN_POINT('',(-14.500000000000002,-14.500000000000002,-50.0));
#242=B_SPLINE_SURFACE_WITH_KNOTS('',1,1,((#238,#240),(#239,#241)),.UNSPECIFIED.,.F.,.F.,.U.,(2,2),(2,2),(0.0,29.000000000000004),(0.0,29.000000000000004),.UNSPECIFIED.);
#243=ORIENTED_EDGE('',*,*,#233,.T.);
#244=EDGE_LOOP('',(#243));
#245=FACE_OUTER_BOUND('',#244,.T.);
#246=ORIENTED_EDGE('',*,*,#121,.T.);
#247=EDGE_LOOP('',(#246));
#248=FACE_BOUND('',#247,.T.);
#249=ADVANCED_FACE('',(#245,#248),#242,.F.);
#250=CARTESIAN_POINT('',(0.0,0.0,0.0));
#251=DIRECTION('',(-1.0,0.0,0.0));
#252=DIRECTION('',(0.0,-1.0,0.0));
#253=AXIS2_PLACEMENT_3D('',#250,#251,#252);
#254=CYLINDRICAL_SURFACE('',#253,14.500000000000002);
#255=ORIENTED_EDGE('',*,*,#222,.T.);
#256=CARTESIAN_POINT('',(0.0,0.0,0.0));
#257=DIRECTION('',(-0.707106781186548,0.0,-0.707106781186548));
#258=DIRECTION('',(-0.707106781186548,0.0,0.707106781186548));
#259=AXIS2_PLACEMENT_3D('',#256,#257,#258);
#260=ELLIPSE('',#259,20.506096654409880,14.500000000000005);
#261=EDGE_CURVE('',#207,#209,#260,.T.);
#262=ORIENTED_EDGE('',*,*,#261,.T.);
#263=EDGE_LOOP('',(#255,#262));
#264=FACE_OUTER_BOUND('',#263,.T.);
#265=CARTESIAN_POINT('',(-50.0,-14.500000000000002,0.0));
#266=VERTEX_POINT('',#265);
#267=CARTESIAN_POINT('',(-50.0,0.0,0.0));
#268=DIRECTION('',(-1.0,0.0,0.0));
#269=DIRECTION('',(0.0,-1.0,0.0));
#270=AXIS2_PLACEMENT_3D('',#267,#268,#269);
#271=CIRCLE('',#270,14.500000000000002);
#272=EDGE_CURVE('',#266,#266,#271,.T.);
#273=ORIENTED_EDGE('',*,*,#272,.F.);
#274=EDGE_LOOP('',(#273));
#275=FACE_BOUND('',#274,.T.);
#276=ADVANCED_FACE('',(#264,#275),#254,.T.);
#277=CARTESIAN_POINT('',(0.0,0.0,0.0));
#278=DIRECTION('',(-1.0,0.0,0.0));
#279=DIRECTION('',(0.0,-1.0,0.0));
#280=AXIS2_PLACEMENT_3D('',#277,#278,#279);
#281=CYLINDRICAL_SURFACE('',#280,14.500000000000002);
#282=ORIENTED_EDGE('',*,*,#215,.T.);
#283=CARTESIAN_POINT('',(0.0,0.0,0.0));
#284=DIRECTION('',(0.707106781186548,0.0,-0.707106781186548));
#285=DIRECTION('',(-0.707106781186548,0.0,-0.707106781186548));
#286=AXIS2_PLACEMENT_3D('',#283,#284,#285);
#287=ELLIPSE('',#286,20.506096654409880,14.500000000000005);
#288=EDGE_CURVE('',#209,#207,#287,.T.);
#289=ORIENTED_EDGE('',*,*,#288,.T.);
#290=EDGE_LOOP('',(#282,#289));
#291=FACE_OUTER_BOUND('',#290,.T.);
#292=CARTESIAN_POINT('',(50.0,-14.500000000000002,0.0));
#293=VERTEX_POINT('',#292);
#294=CARTESIAN_POINT('',(50.0,0.0,0.0));
#295=DIRECTION('',(-1.0,0.0,0.0));
#296=DIRECTION('',(0.0,-1.0,0.0));
#297=AXIS2_PLACEMENT_3D('',#294,#295,#296);
#298=CIRCLE('',#297,14.500000000000002);
#299=EDGE_CURVE('',#293,#293,#298,.T.);
#300=ORIENTED_EDGE('',*,*,#299,.T.);
#301=EDGE_LOOP('',(#300));
#302=FACE_BOUND('',#301,.T.);
#303=ADVANCED_FACE('',(#291,#302),#281,.T.);
#304=CARTESIAN_POINT('',(0.0,0.0,50.0));
#305=DIRECTION('',(0.0,0.0,-1.0));
#306=DIRECTION('',(-1.0,0.0,0.0));
#307=AXIS2_PLACEMENT_3D('',#304,#305,#306);
#308=CYLINDRICAL_SURFACE('',#307,13.000000000000004);
#309=ORIENTED_EDGE('',*,*,#175,.F.);
#310=ORIENTED_EDGE('',*,*,#137,.F.);
#311=EDGE_LOOP('',(#309,#310));
#312=FACE_OUTER_BOUND('',#311,.T.);
#313=CARTESIAN_POINT('',(13.000000000000004,1.592041E-015,50.0));
#314=VERTEX_POINT('',#313);
#315=CARTESIAN_POINT('',(0.0,0.0,50.0));
#316=DIRECTION('',(0.0,0.0,-1.0));
#317=DIRECTION('',(-1.0,0.0,0.0));
#318=AXIS2_PLACEMENT_3D('',#315,#316,#317);
#319=CIRCLE('',#318,13.000000000000004);
#320=EDGE_CURVE('',#314,#314,#319,.T.);
#321=ORIENTED_EDGE('',*,*,#320,.F.);
#322=EDGE_LOOP('',(#321));
#323=FACE_BOUND('',#322,.T.);
#324=ADVANCED_FACE('',(#312,#323),#308,.F.);
#325=CARTESIAN_POINT('',(0.0,0.0,50.0));
#326=DIRECTION('',(0.0,0.0,-1.0));
#327=DIRECTION('',(-1.0,0.0,0.0));
#328=AXIS2_PLACEMENT_3D('',#325,#326,#327);
#329=CYLINDRICAL_SURFACE('',#328,14.500000000000002);
#330=ORIENTED_EDGE('',*,*,#288,.F.);
#331=ORIENTED_EDGE('',*,*,#261,.F.);
#332=EDGE_LOOP('',(#330,#331));
#333=FACE_OUTER_BOUND('',#332,.T.);
#334=CARTESIAN_POINT('',(14.500000000000002,1.775738E-015,50.0));
#335=VERTEX_POINT('',#334);
#336=CARTESIAN_POINT('',(0.0,0.0,50.0));
#337=DIRECTION('',(0.0,0.0,-1.0));
#338=DIRECTION('',(-1.0,0.0,0.0));
#339=AXIS2_PLACEMENT_3D('',#336,#337,#338);
#340=CIRCLE('',#339,14.500000000000002);
#341=EDGE_CURVE('',#335,#335,#340,.T.);
#342=ORIENTED_EDGE('',*,*,#341,.T.);
#343=EDGE_LOOP('',(#342));
#344=FACE_BOUND('',#343,.T.);
#345=ADVANCED_FACE('',(#333,#344),#329,.T.);
#346=CARTESIAN_POINT('',(0.0,0.0,50.0));
#347=DIRECTION('',(0.0,0.0,-1.0));
#348=DIRECTION('',(-1.0,0.0,0.0));
#349=AXIS2_PLACEMENT_3D('',#346,#347,#348);
#350=PLANE('',#349);
#351=ORIENTED_EDGE('',*,*,#341,.F.);
#352=EDGE_LOOP('',(#351));
#353=FACE_OUTER_BOUND('',#352,.T.);
#354=ORIENTED_EDGE('',*,*,#320,.T.);
#355=EDGE_LOOP('',(#354));
#356=FACE_BOUND('',#355,.T.);
#357=ADVANCED_FACE('',(#353,#356),#350,.F.);
#358=CARTESIAN_POINT('',(50.0,-13.750000000000002,0.0));
#359=DIRECTION('',(1.0,0.0,0.0));
#360=DIRECTION('',(0.0,0.0,-1.0));
#361=AXIS2_PLACEMENT_3D('',#358,#359,#360);
#362=PLANE('',#361);
#363=ORIENTED_EDGE('',*,*,#299,.F.);
#364=EDGE_LOOP('',(#363));
#365=FACE_OUTER_BOUND('',#364,.T.);
#366=ORIENTED_EDGE('',*,*,#165,.T.);
#367=EDGE_LOOP('',(#366));
#368=FACE_BOUND('',#367,.T.);
#369=ADVANCED_FACE('',(#365,#368),#362,.T.);
#370=CARTESIAN_POINT('',(-50.0,-13.750000000000002,0.0));
#371=DIRECTION('',(-1.0,0.0,0.0));
#372=DIRECTION('',(0.0,0.0,1.0));
#373=AXIS2_PLACEMENT_3D('',#370,#371,#372);
#374=PLANE('',#373);
#375=ORIENTED_EDGE('',*,*,#272,.T.);
#376=EDGE_LOOP('',(#375));
#377=FACE_OUTER_BOUND('',#376,.T.);
#378=ORIENTED_EDGE('',*,*,#148,.F.);
#379=EDGE_LOOP('',(#378));
#380=FACE_BOUND('',#379,.T.);
#381=ADVANCED_FACE('',(#377,#380),#374,.T.);
#382=CLOSED_SHELL('',(#125,#152,#179,#237,#249,#276,#303,#324,#345,#357,#369,#381));
#383=MANIFOLD_SOLID_BREP('',#382);
#384=COLOUR_RGB('Metall - Stahl',0.639216005802155,0.639216005802155,0.686275005340576);
#385=FILL_AREA_STYLE_COLOUR('Metall - Stahl',#384);
#386=FILL_AREA_STYLE('Metall - Stahl',(#385));
#387=SURFACE_STYLE_FILL_AREA(#386);
#388=SURFACE_SIDE_STYLE('Metall - Stahl',(#387));
#389=SURFACE_STYLE_USAGE(.BOTH.,#388);
#390=PRESENTATION_STYLE_ASSIGNMENT((#389));
#391=STYLED_ITEM('',(#390),#383);
#392=MECHANICAL_DESIGN_GEOMETRIC_PRESENTATION_REPRESENTATION('',(#391),#36);
#393=ADVANCED_BREP_SHAPE_REPRESENTATION('ABSR',(#383),#36);
#394=SHAPE_REPRESENTATION_RELATIONSHIP('SRR','None',#393,#41);
ENDSEC;
END-ISO-10303-21;
