ISO-10303-21;
HEADER;
FILE_DESCRIPTION (( 'STEP AP214' ),
    '1' );
FILE_NAME ('CR 1''''x1.2''''.STEP',
    '2026-01-13T08:26:20',
    ( '' ),
    ( '' ),
    'SwSTEP 2.0',
    'SolidWorks 2018',
    '' );
FILE_SCHEMA (( 'AUTOMOTIVE_DESIGN' ));
ENDSEC;

DATA;
#1 = DIRECTION ( 'NONE',  ( 1.000000000000000000, 0.0000000000000000000, 0.0000000000000000000 ) ) ;
#2 = CIRCLE ( 'NONE', #62, 6.350000000000001421 ) ;
#3 = UNCERTAINTY_MEASURE_WITH_UNIT (LENGTH_MEASURE( 1.000000000000000082E-05 ), #34, 'distance_accuracy_value', 'NONE');
#4 = ORIENTED_EDGE ( 'NONE', *, *, #170, .T. ) ;
#5 = EDGE_CURVE ( 'NONE', #78, #88, #2, .T. ) ;
#6 = VERTEX_POINT ( 'NONE', #115 ) ;
#7 = PRESENTATION_LAYER_ASSIGNMENT (  '', '', ( #128 ) ) ;
#8 = EDGE_CURVE ( 'NONE', #6, #166, #17, .T. ) ;
#9 = CARTESIAN_POINT ( 'NONE',  ( 43.00000000000000000, 5.190940682761116420, 7.776507174585694135E-16 ) ) ;
#10 = DIRECTION ( 'NONE',  ( -1.000000000000000000, 4.034240641806529130E-17, -0.0000000000000000000 ) ) ;
#11 = PLANE ( 'NONE',  #86 ) ;
#12 = ORIENTED_EDGE ( 'NONE', *, *, #119, .F. ) ;
#13 = DIRECTION ( 'NONE',  ( -1.000000000000000000, 4.034240641806529130E-17, 0.0000000000000000000 ) ) ;
#14 = FACE_BOUND ( 'NONE', #144, .T. ) ;
#15 =( NAMED_UNIT ( * ) PLANE_ANGLE_UNIT ( ) SI_UNIT ( $, .RADIAN. ) );
#16 = ADVANCED_FACE ( 'NONE', ( #184 ), #132, .F. ) ;
#17 = CIRCLE ( 'NONE', #94, 12.69999999999999929 ) ;
#18 = ORIENTED_EDGE ( 'NONE', *, *, #80, .T. ) ;
#19 = AXIS2_PLACEMENT_3D ( 'NONE', #197, #59, #1 ) ;
#20 = SURFACE_STYLE_FILL_AREA ( #162 ) ;
#21 = ORIENTED_EDGE ( 'NONE', *, *, #108, .T. ) ;
#22 = DIRECTION ( 'NONE',  ( -0.9892712941516265124, 0.1460900632061122861, 1.789087282925998738E-17 ) ) ;
#23 = SURFACE_STYLE_USAGE ( .BOTH. , #141 ) ;
#24 = CARTESIAN_POINT ( 'NONE',  ( 0.0000000000000000000, 9.890940682761115710, 1.353234713057825280E-15 ) ) ;
#25 = CARTESIAN_POINT ( 'NONE',  ( 43.00000000000000000, -7.509059317238886422, 0.0000000000000000000 ) ) ;
#26 = CONICAL_SURFACE ( 'NONE', #114, 11.04999999999999893, 0.1466147680986188695 ) ;
#27 = PRODUCT_DEFINITION_FORMATION_WITH_SPECIFIED_SOURCE ( 'ANY', '', #66, .NOT_KNOWN. ) ;
#28 = APPLICATION_CONTEXT ( 'automotive_design' ) ;
#29 = ORIENTED_EDGE ( 'NONE', *, *, #5, .T. ) ;
#30 = CONICAL_SURFACE ( 'NONE', #79, 6.350000000000001421, 0.1466147680986188695 ) ;
#31 = ORIENTED_EDGE ( 'NONE', *, *, #51, .F. ) ;
#32 = ORIENTED_EDGE ( 'NONE', *, *, #96, .F. ) ;
#33 = PRESENTATION_LAYER_ASSIGNMENT (  '', '', ( #201 ) ) ;
#34 =( LENGTH_UNIT ( ) NAMED_UNIT ( * ) SI_UNIT ( .MILLI., .METRE. ) );
#35 = VECTOR ( 'NONE', #134, 1000.000000000000114 ) ;
#36 = DIRECTION ( 'NONE',  ( -4.034240641806529746E-17, -1.000000000000000000, 0.0000000000000000000 ) ) ;
#37 = CARTESIAN_POINT ( 'NONE',  ( 3.328248529490390692E-17, 11.54094068276111607, 0.0000000000000000000 ) ) ;
#38 = FACE_BOUND ( 'NONE', #48, .T. ) ;
#39 = PRODUCT_DEFINITION_SHAPE ( 'NONE', 'NONE',  #106 ) ;
#40 = EDGE_CURVE ( 'NONE', #180, #200, #76, .T. ) ;
#41 = DIRECTION ( 'NONE',  ( -1.000000000000000000, 4.034240641806529130E-17, -0.0000000000000000000 ) ) ;
#42 = EDGE_LOOP ( 'NONE', ( #31, #18, #21, #104 ) ) ;
#43 = FACE_OUTER_BOUND ( 'NONE', #168, .T. ) ;
#44 = SHAPE_DEFINITION_REPRESENTATION ( #39, #120 ) ;
#45 = CLOSED_SHELL ( 'NONE', ( #73, #147, #164, #179, #16, #112 ) ) ;
#46 = CARTESIAN_POINT ( 'NONE',  ( 43.00000000000000000, -1.159059317238885001, 0.0000000000000000000 ) ) ;
#47 = CARTESIAN_POINT ( 'NONE',  ( 43.00000000000000000, -1.159059317238885001, 0.0000000000000000000 ) ) ;
#48 = EDGE_LOOP ( 'NONE', ( #55, #12 ) ) ;
#49 = LINE ( 'NONE', #85, #150 ) ;
#50 = DIRECTION ( 'NONE',  ( -1.000000000000000000, 4.034240641806529130E-17, -0.0000000000000000000 ) ) ;
#51 = EDGE_CURVE ( 'NONE', #88, #6, #81, .T. ) ;
#52 = CARTESIAN_POINT ( 'NONE',  ( 43.00000000000000000, 3.540940682761116065, 9.644093543285408694E-16 ) ) ;
#53 = DIRECTION ( 'NONE',  ( -1.000000000000000000, 4.034240641806529130E-17, -0.0000000000000000000 ) ) ;
#54 = FILL_AREA_STYLE ('',( #206 ) ) ;
#55 = ORIENTED_EDGE ( 'NONE', *, *, #163, .F. ) ;
#56 = PRODUCT_RELATED_PRODUCT_CATEGORY ( 'part', '', ( #66 ) ) ;
#57 = COLOUR_RGB ( '',0.7921568627450980005, 0.8196078431372548767, 0.9333333333333333481 ) ;
#58 = COLOUR_RGB ( '',0.7921568627450980005, 0.8196078431372548767, 0.9333333333333333481 ) ;
#59 = DIRECTION ( 'NONE',  ( 0.0000000000000000000, 0.0000000000000000000, 1.000000000000000000 ) ) ;
#60 = MECHANICAL_DESIGN_GEOMETRIC_PRESENTATION_REPRESENTATION (  '', ( #128 ), #167 ) ;
#61 = ORIENTED_EDGE ( 'NONE', *, *, #8, .T. ) ;
#62 = AXIS2_PLACEMENT_3D ( 'NONE', #46, #135, #171 ) ;
#63 = VECTOR ( 'NONE', #126, 1000.000000000000114 ) ;
#64 = DIRECTION ( 'NONE',  ( -1.000000000000000000, 4.034240641806529130E-17, -0.0000000000000000000 ) ) ;
#65 = DIRECTION ( 'NONE',  ( 0.0000000000000000000, -1.000000000000000000, 0.0000000000000000000 ) ) ;
#66 = PRODUCT ( 'CR 1''''''''x1.2''''''''', 'CR 1''''''''x1.2''''''''', '', ( #111 ) ) ;
#67 = CARTESIAN_POINT ( 'NONE',  ( 43.00000000000000000, -1.159059317238885001, 0.0000000000000000000 ) ) ;
#68 = ORIENTED_EDGE ( 'NONE', *, *, #163, .T. ) ;
#69 = AXIS2_PLACEMENT_3D ( 'NONE', #142, #172, #82 ) ;
#70 = CONICAL_SURFACE ( 'NONE', #69, 6.350000000000001421, 0.1466147680986188695 ) ;
#71 = DIRECTION ( 'NONE',  ( 0.0000000000000000000, -1.000000000000000000, 0.0000000000000000000 ) ) ;
#72 = APPLICATION_CONTEXT ( 'automotive_design' ) ;
#73 = ADVANCED_FACE ( 'NONE', ( #43 ), #26, .F. ) ;
#74 = ORIENTED_EDGE ( 'NONE', *, *, #207, .F. ) ;
#75 =( GEOMETRIC_REPRESENTATION_CONTEXT ( 3 ) GLOBAL_UNCERTAINTY_ASSIGNED_CONTEXT ( ( #192 ) ) GLOBAL_UNIT_ASSIGNED_CONTEXT ( ( #90, #87, #177 ) ) REPRESENTATION_CONTEXT ( 'NONE', 'WORKASPACE' ) );
#76 = CIRCLE ( 'NONE', #188, 4.700000000000001066 ) ;
#77 = ORIENTED_EDGE ( 'NONE', *, *, #207, .T. ) ;
#78 = VERTEX_POINT ( 'NONE', #25 ) ;
#79 = AXIS2_PLACEMENT_3D ( 'NONE', #214, #123, #212 ) ;
#80 = EDGE_CURVE ( 'NONE', #88, #78, #202, .T. ) ;
#81 = LINE ( 'NONE', #9, #35 ) ;
#82 = DIRECTION ( 'NONE',  ( 0.0000000000000000000, -1.000000000000000000, 0.0000000000000000000 ) ) ;
#83 = ORIENTED_EDGE ( 'NONE', *, *, #203, .F. ) ;
#84 =( NAMED_UNIT ( * ) PLANE_ANGLE_UNIT ( ) SI_UNIT ( $, .RADIAN. ) );
#85 = CARTESIAN_POINT ( 'NONE',  ( 43.00000000000000000, -7.509059317238886422, 0.0000000000000000000 ) ) ;
#86 = AXIS2_PLACEMENT_3D ( 'NONE', #37, #138, #139 ) ;
#87 =( NAMED_UNIT ( * ) PLANE_ANGLE_UNIT ( ) SI_UNIT ( $, .RADIAN. ) );
#88 = VERTEX_POINT ( 'NONE', #193 ) ;
#89 = LINE ( 'NONE', #211, #63 ) ;
#90 =( LENGTH_UNIT ( ) NAMED_UNIT ( * ) SI_UNIT ( .MILLI., .METRE. ) );
#91 = SURFACE_STYLE_FILL_AREA ( #54 ) ;
#92 = EDGE_LOOP ( 'NONE', ( #95, #61 ) ) ;
#93 = AXIS2_PLACEMENT_3D ( 'NONE', #158, #13, #140 ) ;
#94 = AXIS2_PLACEMENT_3D ( 'NONE', #97, #64, #102 ) ;
#95 = ORIENTED_EDGE ( 'NONE', *, *, #96, .T. ) ;
#96 = EDGE_CURVE ( 'NONE', #166, #6, #100, .T. ) ;
#97 = CARTESIAN_POINT ( 'NONE',  ( -5.123485615094291317E-16, -1.159059317238883224, 0.0000000000000000000 ) ) ;
#98 = EDGE_LOOP ( 'NONE', ( #117, #116 ) ) ;
#99 = CIRCLE ( 'NONE', #176, 11.04999999999999893 ) ;
#100 = CIRCLE ( 'NONE', #153, 12.69999999999999929 ) ;
#101 = DIRECTION ( 'NONE',  ( -1.000000000000000000, 4.034240641806529130E-17, -0.0000000000000000000 ) ) ;
#102 = DIRECTION ( 'NONE',  ( -4.034240641806529130E-17, -1.000000000000000000, 0.0000000000000000000 ) ) ;
#103 = MANIFOLD_SOLID_BREP ( 'Revolve2', #45 ) ;
#104 = ORIENTED_EDGE ( 'NONE', *, *, #8, .F. ) ;
#105 = DIRECTION ( 'NONE',  ( -4.034240641806529130E-17, -1.000000000000000000, 0.0000000000000000000 ) ) ;
#106 = PRODUCT_DEFINITION ( 'UNKNOWN', '', #27, #178 ) ;
#107 =( NAMED_UNIT ( * ) SI_UNIT ( $, .STERADIAN. ) SOLID_ANGLE_UNIT ( ) );
#108 = EDGE_CURVE ( 'NONE', #78, #166, #49, .T. ) ;
#109 = VERTEX_POINT ( 'NONE', #209 ) ;
#110 = VECTOR ( 'NONE', #22, 1000.000000000000114 ) ;
#111 = PRODUCT_CONTEXT ( 'NONE', #72, 'mechanical' ) ;
#112 = ADVANCED_FACE ( 'NONE', ( #38, #196 ), #11, .F. ) ;
#113 = FACE_OUTER_BOUND ( 'NONE', #42, .T. ) ;
#114 = AXIS2_PLACEMENT_3D ( 'NONE', #169, #208, #187 ) ;
#115 = CARTESIAN_POINT ( 'NONE',  ( -5.123485615094291317E-16, 11.54094068276111607, 1.555301434917138433E-15 ) ) ;
#116 = ORIENTED_EDGE ( 'NONE', *, *, #80, .F. ) ;
#117 = ORIENTED_EDGE ( 'NONE', *, *, #5, .F. ) ;
#118 = AXIS2_PLACEMENT_3D ( 'NONE', #67, #41, #127 ) ;
#119 = EDGE_CURVE ( 'NONE', #191, #109, #99, .T. ) ;
#120 = ADVANCED_BREP_SHAPE_REPRESENTATION ( 'CR 1''''''''x1.2''''''''', ( #103, #19 ), #151 ) ;
#121 = PLANE ( 'NONE',  #93 ) ;
#122 = CARTESIAN_POINT ( 'NONE',  ( -4.457835909196214658E-16, -1.159059317238883224, 0.0000000000000000000 ) ) ;
#123 = DIRECTION ( 'NONE',  ( -1.000000000000000000, 4.034240641806529130E-17, -0.0000000000000000000 ) ) ;
#124 = ORIENTED_EDGE ( 'NONE', *, *, #119, .T. ) ;
#125 = CARTESIAN_POINT ( 'NONE',  ( -5.123485615094291317E-16, -1.159059317238883224, 0.0000000000000000000 ) ) ;
#126 = DIRECTION ( 'NONE',  ( -0.9892712941516265124, -0.1460900632061122306, 0.0000000000000000000 ) ) ;
#127 = DIRECTION ( 'NONE',  ( 0.0000000000000000000, -1.000000000000000000, 0.0000000000000000000 ) ) ;
#128 = STYLED_ITEM ( 'NONE', ( #137 ), #103 ) ;
#129 =( LENGTH_UNIT ( ) NAMED_UNIT ( * ) SI_UNIT ( .MILLI., .METRE. ) );
#130 = SURFACE_STYLE_USAGE ( .BOTH. , #148 ) ;
#131 = ORIENTED_EDGE ( 'NONE', *, *, #170, .F. ) ;
#132 = CONICAL_SURFACE ( 'NONE', #204, 11.04999999999999893, 0.1466147680986188695 ) ;
#133 = ORIENTED_EDGE ( 'NONE', *, *, #203, .T. ) ;
#134 = DIRECTION ( 'NONE',  ( -0.9892712941516265124, 0.1460900632061122861, 1.789087282925998738E-17 ) ) ;
#135 = DIRECTION ( 'NONE',  ( -1.000000000000000000, 4.034240641806529130E-17, -0.0000000000000000000 ) ) ;
#136 = CIRCLE ( 'NONE', #118, 4.700000000000001066 ) ;
#137 = PRESENTATION_STYLE_ASSIGNMENT (( #23 ) ) ;
#138 = DIRECTION ( 'NONE',  ( 1.000000000000000000, -4.034240641806529130E-17, 0.0000000000000000000 ) ) ;
#139 = DIRECTION ( 'NONE',  ( 4.034240641806529130E-17, 1.000000000000000000, 0.0000000000000000000 ) ) ;
#140 = DIRECTION ( 'NONE',  ( -4.034240641806529130E-17, -1.000000000000000000, 0.0000000000000000000 ) ) ;
#141 = SURFACE_SIDE_STYLE ('',( #91 ) ) ;
#142 = CARTESIAN_POINT ( 'NONE',  ( 43.00000000000000000, -1.159059317238885001, 0.0000000000000000000 ) ) ;
#143 = APPLICATION_PROTOCOL_DEFINITION ( 'draft international standard', 'automotive_design', 1998, #28 ) ;
#144 = EDGE_LOOP ( 'NONE', ( #133, #198 ) ) ;
#145 = FACE_OUTER_BOUND ( 'NONE', #149, .T. ) ;
#146 =( NAMED_UNIT ( * ) SI_UNIT ( $, .STERADIAN. ) SOLID_ANGLE_UNIT ( ) );
#147 = ADVANCED_FACE ( 'NONE', ( #145 ), #70, .T. ) ;
#148 = SURFACE_SIDE_STYLE ('',( #20 ) ) ;
#149 = EDGE_LOOP ( 'NONE', ( #29, #154, #32, #159 ) ) ;
#150 = VECTOR ( 'NONE', #195, 1000.000000000000114 ) ;
#151 =( GEOMETRIC_REPRESENTATION_CONTEXT ( 3 ) GLOBAL_UNCERTAINTY_ASSIGNED_CONTEXT ( ( #183 ) ) GLOBAL_UNIT_ASSIGNED_CONTEXT ( ( #129, #15, #146 ) ) REPRESENTATION_CONTEXT ( 'NONE', 'WORKASPACE' ) );
#152 = EDGE_LOOP ( 'NONE', ( #131, #83, #77, #68 ) ) ;
#153 = AXIS2_PLACEMENT_3D ( 'NONE', #125, #161, #105 ) ;
#154 = ORIENTED_EDGE ( 'NONE', *, *, #51, .T. ) ;
#155 = DIRECTION ( 'NONE',  ( -4.034240641806529746E-17, -1.000000000000000000, 0.0000000000000000000 ) ) ;
#156 = DIRECTION ( 'NONE',  ( -1.000000000000000000, 4.034240641806529130E-17, -0.0000000000000000000 ) ) ;
#157 = CARTESIAN_POINT ( 'NONE',  ( 43.00000000000000000, -1.159059317238885001, 0.0000000000000000000 ) ) ;
#158 = CARTESIAN_POINT ( 'NONE',  ( 43.00000000000000000, 5.190940682761116420, 0.0000000000000000000 ) ) ;
#159 = ORIENTED_EDGE ( 'NONE', *, *, #108, .F. ) ;
#160 = FACE_OUTER_BOUND ( 'NONE', #98, .T. ) ;
#161 = DIRECTION ( 'NONE',  ( -1.000000000000000000, 4.034240641806529130E-17, -0.0000000000000000000 ) ) ;
#162 = FILL_AREA_STYLE ('',( #199 ) ) ;
#163 = EDGE_CURVE ( 'NONE', #109, #191, #205, .T. ) ;
#164 = ADVANCED_FACE ( 'NONE', ( #113 ), #30, .T. ) ;
#165 = APPLICATION_PROTOCOL_DEFINITION ( 'draft international standard', 'automotive_design', 1998, #72 ) ;
#166 = VERTEX_POINT ( 'NONE', #174 ) ;
#167 =( GEOMETRIC_REPRESENTATION_CONTEXT ( 3 ) GLOBAL_UNCERTAINTY_ASSIGNED_CONTEXT ( ( #3 ) ) GLOBAL_UNIT_ASSIGNED_CONTEXT ( ( #34, #84, #107 ) ) REPRESENTATION_CONTEXT ( 'NONE', 'WORKASPACE' ) );
#168 = EDGE_LOOP ( 'NONE', ( #173, #4, #124, #74 ) ) ;
#169 = CARTESIAN_POINT ( 'NONE',  ( -4.457835909196214658E-16, -1.159059317238883224, 0.0000000000000000000 ) ) ;
#170 = EDGE_CURVE ( 'NONE', #180, #191, #181, .T. ) ;
#171 = DIRECTION ( 'NONE',  ( 0.0000000000000000000, -1.000000000000000000, 0.0000000000000000000 ) ) ;
#172 = DIRECTION ( 'NONE',  ( -1.000000000000000000, 4.034240641806529130E-17, -0.0000000000000000000 ) ) ;
#173 = ORIENTED_EDGE ( 'NONE', *, *, #40, .F. ) ;
#174 = CARTESIAN_POINT ( 'NONE',  ( -5.123485615094291317E-16, -13.85905931723888251, 0.0000000000000000000 ) ) ;
#175 = CARTESIAN_POINT ( 'NONE',  ( -4.457835909196214658E-16, -1.159059317238883224, 0.0000000000000000000 ) ) ;
#176 = AXIS2_PLACEMENT_3D ( 'NONE', #122, #156, #36 ) ;
#177 =( NAMED_UNIT ( * ) SI_UNIT ( $, .STERADIAN. ) SOLID_ANGLE_UNIT ( ) );
#178 = PRODUCT_DEFINITION_CONTEXT ( 'detailed design', #28, 'design' ) ;
#179 = ADVANCED_FACE ( 'NONE', ( #160, #14 ), #121, .F. ) ;
#180 = VERTEX_POINT ( 'NONE', #52 ) ;
#181 = LINE ( 'NONE', #24, #110 ) ;
#182 = AXIS2_PLACEMENT_3D ( 'NONE', #157, #53, #71 ) ;
#183 = UNCERTAINTY_MEASURE_WITH_UNIT (LENGTH_MEASURE( 1.000000000000000082E-05 ), #129, 'distance_accuracy_value', 'NONE');
#184 = FACE_OUTER_BOUND ( 'NONE', #152, .T. ) ;
#185 = AXIS2_PLACEMENT_3D ( 'NONE', #175, #10, #210 ) ;
#186 = PRESENTATION_STYLE_ASSIGNMENT (( #130 ) ) ;
#187 = DIRECTION ( 'NONE',  ( -4.034240641806529746E-17, -1.000000000000000000, 0.0000000000000000000 ) ) ;
#188 = AXIS2_PLACEMENT_3D ( 'NONE', #47, #101, #65 ) ;
#189 = CARTESIAN_POINT ( 'NONE',  ( -4.457835909196214658E-16, -1.159059317238883224, 0.0000000000000000000 ) ) ;
#190 = CARTESIAN_POINT ( 'NONE',  ( 43.00000000000000000, -5.859059317238886067, 0.0000000000000000000 ) ) ;
#191 = VERTEX_POINT ( 'NONE', #194 ) ;
#192 = UNCERTAINTY_MEASURE_WITH_UNIT (LENGTH_MEASURE( 1.000000000000000082E-05 ), #90, 'distance_accuracy_value', 'NONE');
#193 = CARTESIAN_POINT ( 'NONE',  ( 43.00000000000000000, 5.190940682761116420, 1.166476076187853824E-15 ) ) ;
#194 = CARTESIAN_POINT ( 'NONE',  ( 0.0000000000000000000, 9.890940682761115710, 1.353234713057825280E-15 ) ) ;
#195 = DIRECTION ( 'NONE',  ( -0.9892712941516265124, -0.1460900632061122306, 0.0000000000000000000 ) ) ;
#196 = FACE_OUTER_BOUND ( 'NONE', #92, .T. ) ;
#197 = CARTESIAN_POINT ( 'NONE',  ( 0.0000000000000000000, 0.0000000000000000000, 0.0000000000000000000 ) ) ;
#198 = ORIENTED_EDGE ( 'NONE', *, *, #40, .T. ) ;
#199 = FILL_AREA_STYLE_COLOUR ( '', #57 ) ;
#200 = VERTEX_POINT ( 'NONE', #190 ) ;
#201 = STYLED_ITEM ( 'NONE', ( #186 ), #120 ) ;
#202 = CIRCLE ( 'NONE', #182, 6.350000000000001421 ) ;
#203 = EDGE_CURVE ( 'NONE', #200, #180, #136, .T. ) ;
#204 = AXIS2_PLACEMENT_3D ( 'NONE', #189, #50, #155 ) ;
#205 = CIRCLE ( 'NONE', #185, 11.04999999999999893 ) ;
#206 = FILL_AREA_STYLE_COLOUR ( '', #58 ) ;
#207 = EDGE_CURVE ( 'NONE', #200, #109, #89, .T. ) ;
#208 = DIRECTION ( 'NONE',  ( -1.000000000000000000, 4.034240641806529130E-17, -0.0000000000000000000 ) ) ;
#209 = CARTESIAN_POINT ( 'NONE',  ( -8.915671818392429315E-16, -12.20905931723888216, 0.0000000000000000000 ) ) ;
#210 = DIRECTION ( 'NONE',  ( -4.034240641806529746E-17, -1.000000000000000000, 0.0000000000000000000 ) ) ;
#211 = CARTESIAN_POINT ( 'NONE',  ( -8.915671818392429315E-16, -12.20905931723888216, 0.0000000000000000000 ) ) ;
#212 = DIRECTION ( 'NONE',  ( 0.0000000000000000000, -1.000000000000000000, 0.0000000000000000000 ) ) ;
#213 = MECHANICAL_DESIGN_GEOMETRIC_PRESENTATION_REPRESENTATION (  '', ( #201 ), #75 ) ;
#214 = CARTESIAN_POINT ( 'NONE',  ( 43.00000000000000000, -1.159059317238885001, 0.0000000000000000000 ) ) ;
ENDSEC;
END-ISO-10303-21;
