ISO-10303-21;
HEADER;
FILE_DESCRIPTION (( 'STEP AP214' ),
    '1' );
FILE_NAME ('CR 2''''x1''''.STEP',
    '2026-01-13T08:32:29',
    ( '' ),
    ( '' ),
    'SwSTEP 2.0',
    'SolidWorks 2018',
    '' );
FILE_SCHEMA (( 'AUTOMOTIVE_DESIGN' ));
ENDSEC;

DATA;
#1 = DIRECTION ( 'NONE',  ( -1.000000000000000000, 6.938893903907228378E-17, -0.0000000000000000000 ) ) ;
#2 = DIRECTION ( 'NONE',  ( 1.000000000000000000, 0.0000000000000000000, 0.0000000000000000000 ) ) ;
#3 =( NAMED_UNIT ( * ) PLANE_ANGLE_UNIT ( ) SI_UNIT ( $, .RADIAN. ) );
#4 = DIRECTION ( 'NONE',  ( -1.000000000000000000, 6.938893903907228378E-17, -0.0000000000000000000 ) ) ;
#5 = EDGE_CURVE ( 'NONE', #72, #35, #93, .T. ) ;
#6 = ORIENTED_EDGE ( 'NONE', *, *, #37, .T. ) ;
#7 = VERTEX_POINT ( 'NONE', #135 ) ;
#8 = LINE ( 'NONE', #169, #182 ) ;
#9 = PRODUCT_DEFINITION_SHAPE ( 'NONE', 'NONE',  #168 ) ;
#10 = CARTESIAN_POINT ( 'NONE',  ( 50.00000000000000000, -19.76141574145339064, 0.0000000000000000000 ) ) ;
#11 = DIRECTION ( 'NONE',  ( -6.938893903907228378E-17, -1.000000000000000000, 0.0000000000000000000 ) ) ;
#12 = ADVANCED_FACE ( 'NONE', ( #143, #188 ), #55, .F. ) ;
#13 = DIRECTION ( 'NONE',  ( -1.000000000000000000, 6.938893903907228378E-17, -0.0000000000000000000 ) ) ;
#14 = CARTESIAN_POINT ( 'NONE',  ( 50.00000000000000000, -8.711415741453388151, 0.0000000000000000000 ) ) ;
#15 = CIRCLE ( 'NONE', #175, 23.75000000000000000 ) ;
#16 = CARTESIAN_POINT ( 'NONE',  ( 50.00000000000000000, -8.711415741453388151, 0.0000000000000000000 ) ) ;
#17 = PRODUCT_CONTEXT ( 'NONE', #110, 'mechanical' ) ;
#18 =( LENGTH_UNIT ( ) NAMED_UNIT ( * ) SI_UNIT ( .MILLI., .METRE. ) );
#19 = ORIENTED_EDGE ( 'NONE', *, *, #173, .T. ) ;
#20 = FACE_OUTER_BOUND ( 'NONE', #107, .T. ) ;
#21 = VERTEX_POINT ( 'NONE', #101 ) ;
#22 = LINE ( 'NONE', #106, #184 ) ;
#23 = ORIENTED_EDGE ( 'NONE', *, *, #173, .F. ) ;
#24 = PRESENTATION_STYLE_ASSIGNMENT (( #47 ) ) ;
#25 = EDGE_CURVE ( 'NONE', #114, #186, #8, .T. ) ;
#26 = ORIENTED_EDGE ( 'NONE', *, *, #5, .T. ) ;
#27 = DIRECTION ( 'NONE',  ( 0.0000000000000000000, -1.000000000000000000, 0.0000000000000000000 ) ) ;
#28 = DIRECTION ( 'NONE',  ( 1.000000000000000000, -6.938893903907228378E-17, 0.0000000000000000000 ) ) ;
#29 = ORIENTED_EDGE ( 'NONE', *, *, #163, .F. ) ;
#30 = DIRECTION ( 'NONE',  ( 6.938893903907228378E-17, 1.000000000000000000, 0.0000000000000000000 ) ) ;
#31 = FACE_OUTER_BOUND ( 'NONE', #212, .T. ) ;
#32 = FILL_AREA_STYLE_COLOUR ( '', #204 ) ;
#33 = PLANE ( 'NONE',  #96 ) ;
#34 = APPLICATION_PROTOCOL_DEFINITION ( 'draft international standard', 'automotive_design', 1998, #125 ) ;
#35 = VERTEX_POINT ( 'NONE', #137 ) ;
#36 =( NAMED_UNIT ( * ) SI_UNIT ( $, .STERADIAN. ) SOLID_ANGLE_UNIT ( ) );
#37 = EDGE_CURVE ( 'NONE', #114, #44, #56, .T. ) ;
#38 = AXIS2_PLACEMENT_3D ( 'NONE', #199, #200, #2 ) ;
#39 = ORIENTED_EDGE ( 'NONE', *, *, #25, .T. ) ;
#40 = VECTOR ( 'NONE', #80, 1000.000000000000227 ) ;
#41 = ADVANCED_FACE ( 'NONE', ( #97 ), #128, .F. ) ;
#42 = EDGE_CURVE ( 'NONE', #7, #83, #45, .T. ) ;
#43 = DIRECTION ( 'NONE',  ( 0.0000000000000000000, -1.000000000000000000, 0.0000000000000000000 ) ) ;
#44 = VERTEX_POINT ( 'NONE', #142 ) ;
#45 = CIRCLE ( 'NONE', #113, 25.39999999999999858 ) ;
#46 = CARTESIAN_POINT ( 'NONE',  ( 50.00000000000000000, 3.988584258546614691, 1.555301434917138827E-15 ) ) ;
#47 = SURFACE_STYLE_USAGE ( .BOTH. , #174 ) ;
#48 = CARTESIAN_POINT ( 'NONE',  ( 50.00000000000000000, 3.988584258546614691, 0.0000000000000000000 ) ) ;
#49 = CARTESIAN_POINT ( 'NONE',  ( -3.295974604355933479E-15, -32.46141574145338637, 0.0000000000000000000 ) ) ;
#50 = ORIENTED_EDGE ( 'NONE', *, *, #163, .T. ) ;
#51 = COLOUR_RGB ( '',0.7921568627450980005, 0.8196078431372548767, 0.9333333333333333481 ) ;
#52 = EDGE_CURVE ( 'NONE', #72, #7, #22, .T. ) ;
#53 = FACE_OUTER_BOUND ( 'NONE', #69, .T. ) ;
#54 = EDGE_CURVE ( 'NONE', #35, #72, #57, .T. ) ;
#55 = PLANE ( 'NONE',  #86 ) ;
#56 = CIRCLE ( 'NONE', #133, 11.05000000000000071 ) ;
#57 = CIRCLE ( 'NONE', #148, 12.70000000000000284 ) ;
#58 = CARTESIAN_POINT ( 'NONE',  ( -1.647987302177966740E-15, -8.711415741453384598, 0.0000000000000000000 ) ) ;
#59 = ORIENTED_EDGE ( 'NONE', *, *, #132, .F. ) ;
#60 = DIRECTION ( 'NONE',  ( -1.000000000000000000, 6.938893903907228378E-17, -0.0000000000000000000 ) ) ;
#61 = DIRECTION ( 'NONE',  ( -1.000000000000000000, 6.938893903907228378E-17, -0.0000000000000000000 ) ) ;
#62 = ORIENTED_EDGE ( 'NONE', *, *, #5, .F. ) ;
#63 = CARTESIAN_POINT ( 'NONE',  ( -1.647987302177966740E-15, -8.711415741453384598, 0.0000000000000000000 ) ) ;
#64 =( NAMED_UNIT ( * ) SI_UNIT ( $, .STERADIAN. ) SOLID_ANGLE_UNIT ( ) );
#65 = DIRECTION ( 'NONE',  ( -6.938893903907228378E-17, -1.000000000000000000, 0.0000000000000000000 ) ) ;
#66 = ORIENTED_EDGE ( 'NONE', *, *, #154, .F. ) ;
#67 = EDGE_CURVE ( 'NONE', #44, #114, #207, .T. ) ;
#68 = PRESENTATION_STYLE_ASSIGNMENT (( #111 ) ) ;
#69 = EDGE_LOOP ( 'NONE', ( #59, #161, #39, #50 ) ) ;
#70 = EDGE_LOOP ( 'NONE', ( #196, #206, #76, #66 ) ) ;
#71 = CONICAL_SURFACE ( 'NONE', #165, 12.70000000000000284, 0.2487398113528482557 ) ;
#72 = VERTEX_POINT ( 'NONE', #124 ) ;
#73 = MANIFOLD_SOLID_BREP ( 'Revolve1', #203 ) ;
#74 = EDGE_LOOP ( 'NONE', ( #6, #87 ) ) ;
#75 = CARTESIAN_POINT ( 'NONE',  ( 50.00000000000000000, -8.711415741453388151, 0.0000000000000000000 ) ) ;
#76 = ORIENTED_EDGE ( 'NONE', *, *, #52, .T. ) ;
#77 = SURFACE_STYLE_FILL_AREA ( #178 ) ;
#78 = DIRECTION ( 'NONE',  ( -0.9692234279359353000, -0.2461827506957274536, 0.0000000000000000000 ) ) ;
#79 = PRESENTATION_LAYER_ASSIGNMENT (  '', '', ( #118 ) ) ;
#80 = DIRECTION ( 'NONE',  ( -0.9692234279359353000, 0.2461827506957275646, 3.014869176448135329E-17 ) ) ;
#81 = SURFACE_SIDE_STYLE ('',( #77 ) ) ;
#82 = UNCERTAINTY_MEASURE_WITH_UNIT (LENGTH_MEASURE( 1.000000000000000082E-05 ), #18, 'distance_accuracy_value', 'NONE');
#83 = VERTEX_POINT ( 'NONE', #88 ) ;
#84 = ADVANCED_BREP_SHAPE_REPRESENTATION ( 'CR 2''''''''x1''''''''', ( #73, #38 ), #130 ) ;
#85 = CIRCLE ( 'NONE', #99, 23.75000000000000000 ) ;
#86 = AXIS2_PLACEMENT_3D ( 'NONE', #119, #28, #30 ) ;
#87 = ORIENTED_EDGE ( 'NONE', *, *, #67, .T. ) ;
#88 = CARTESIAN_POINT ( 'NONE',  ( -1.762479051592436008E-15, 16.68858425854661576, 3.110602869834276471E-15 ) ) ;
#89 = CARTESIAN_POINT ( 'NONE',  ( -1.647987302177966740E-15, -8.711415741453384598, 0.0000000000000000000 ) ) ;
#90 = UNCERTAINTY_MEASURE_WITH_UNIT (LENGTH_MEASURE( 1.000000000000000082E-05 ), #140, 'distance_accuracy_value', 'NONE');
#91 = DIRECTION ( 'NONE',  ( -6.938893903907228378E-17, -1.000000000000000000, 0.0000000000000000000 ) ) ;
#92 = CARTESIAN_POINT ( 'NONE',  ( 50.00000000000000000, -8.711415741453388151, 0.0000000000000000000 ) ) ;
#93 = CIRCLE ( 'NONE', #180, 12.70000000000000284 ) ;
#94 = CONICAL_SURFACE ( 'NONE', #134, 12.70000000000000284, 0.2487398113528482557 ) ;
#95 = AXIS2_PLACEMENT_3D ( 'NONE', #213, #190, #209 ) ;
#96 = AXIS2_PLACEMENT_3D ( 'NONE', #48, #145, #65 ) ;
#97 = FACE_OUTER_BOUND ( 'NONE', #138, .T. ) ;
#98 = AXIS2_PLACEMENT_3D ( 'NONE', #58, #187, #214 ) ;
#99 = AXIS2_PLACEMENT_3D ( 'NONE', #89, #1, #91 ) ;
#100 = CARTESIAN_POINT ( 'NONE',  ( 50.00000000000000000, -8.711415741453388151, 0.0000000000000000000 ) ) ;
#101 = CARTESIAN_POINT ( 'NONE',  ( 0.0000000000000000000, 15.03858425854661540, 2.908536147974964107E-15 ) ) ;
#102 =( NAMED_UNIT ( * ) SI_UNIT ( $, .STERADIAN. ) SOLID_ANGLE_UNIT ( ) );
#103 = DIRECTION ( 'NONE',  ( -1.000000000000000000, 6.938893903907228378E-17, -0.0000000000000000000 ) ) ;
#104 = ADVANCED_FACE ( 'NONE', ( #53 ), #179, .F. ) ;
#105 = PRESENTATION_LAYER_ASSIGNMENT (  '', '', ( #191 ) ) ;
#106 = CARTESIAN_POINT ( 'NONE',  ( 50.00000000000000000, -21.41141574145339277, 0.0000000000000000000 ) ) ;
#107 = EDGE_LOOP ( 'NONE', ( #62, #117 ) ) ;
#108 = PRODUCT_RELATED_PRODUCT_CATEGORY ( 'part', '', ( #208 ) ) ;
#109 = DIRECTION ( 'NONE',  ( 0.0000000000000000000, -1.000000000000000000, 0.0000000000000000000 ) ) ;
#110 = APPLICATION_CONTEXT ( 'automotive_design' ) ;
#111 = SURFACE_STYLE_USAGE ( .BOTH. , #81 ) ;
#112 = ORIENTED_EDGE ( 'NONE', *, *, #42, .T. ) ;
#113 = AXIS2_PLACEMENT_3D ( 'NONE', #122, #61, #172 ) ;
#114 = VERTEX_POINT ( 'NONE', #10 ) ;
#115 = SHAPE_DEFINITION_REPRESENTATION ( #9, #84 ) ;
#116 = ORIENTED_EDGE ( 'NONE', *, *, #25, .F. ) ;
#117 = ORIENTED_EDGE ( 'NONE', *, *, #54, .F. ) ;
#118 = STYLED_ITEM ( 'NONE', ( #68 ), #84 ) ;
#119 = CARTESIAN_POINT ( 'NONE',  ( 5.724587470723458481E-17, 16.68858425854661576, 0.0000000000000000000 ) ) ;
#120 = ORIENTED_EDGE ( 'NONE', *, *, #154, .T. ) ;
#121 = ORIENTED_EDGE ( 'NONE', *, *, #52, .F. ) ;
#122 = CARTESIAN_POINT ( 'NONE',  ( -1.762479051592436008E-15, -8.711415741453384598, 0.0000000000000000000 ) ) ;
#123 = FACE_BOUND ( 'NONE', #74, .T. ) ;
#124 = CARTESIAN_POINT ( 'NONE',  ( 50.00000000000000000, -21.41141574145339277, 0.0000000000000000000 ) ) ;
#125 = APPLICATION_CONTEXT ( 'automotive_design' ) ;
#126 =( NAMED_UNIT ( * ) PLANE_ANGLE_UNIT ( ) SI_UNIT ( $, .RADIAN. ) );
#127 = APPLICATION_PROTOCOL_DEFINITION ( 'draft international standard', 'automotive_design', 1998, #110 ) ;
#128 = CONICAL_SURFACE ( 'NONE', #98, 23.75000000000000000, 0.2487398113528483390 ) ;
#129 =( GEOMETRIC_REPRESENTATION_CONTEXT ( 3 ) GLOBAL_UNCERTAINTY_ASSIGNED_CONTEXT ( ( #90 ) ) GLOBAL_UNIT_ASSIGNED_CONTEXT ( ( #140, #198, #102 ) ) REPRESENTATION_CONTEXT ( 'NONE', 'WORKASPACE' ) );
#130 =( GEOMETRIC_REPRESENTATION_CONTEXT ( 3 ) GLOBAL_UNCERTAINTY_ASSIGNED_CONTEXT ( ( #131 ) ) GLOBAL_UNIT_ASSIGNED_CONTEXT ( ( #160, #3, #64 ) ) REPRESENTATION_CONTEXT ( 'NONE', 'WORKASPACE' ) );
#131 = UNCERTAINTY_MEASURE_WITH_UNIT (LENGTH_MEASURE( 1.000000000000000082E-05 ), #160, 'distance_accuracy_value', 'NONE');
#132 = EDGE_CURVE ( 'NONE', #44, #21, #189, .T. ) ;
#133 = AXIS2_PLACEMENT_3D ( 'NONE', #14, #159, #158 ) ;
#134 = AXIS2_PLACEMENT_3D ( 'NONE', #92, #4, #147 ) ;
#135 = CARTESIAN_POINT ( 'NONE',  ( -1.762479051592436008E-15, -34.11141574145338495, 0.0000000000000000000 ) ) ;
#136 = SURFACE_STYLE_FILL_AREA ( #170 ) ;
#137 = CARTESIAN_POINT ( 'NONE',  ( 50.00000000000000000, 3.988584258546614691, 2.332952152375707649E-15 ) ) ;
#138 = EDGE_LOOP ( 'NONE', ( #155, #166, #19, #116 ) ) ;
#139 = ADVANCED_FACE ( 'NONE', ( #167 ), #71, .T. ) ;
#140 =( LENGTH_UNIT ( ) NAMED_UNIT ( * ) SI_UNIT ( .MILLI., .METRE. ) );
#141 = AXIS2_PLACEMENT_3D ( 'NONE', #63, #60, #194 ) ;
#142 = CARTESIAN_POINT ( 'NONE',  ( 50.00000000000000000, 2.338584258546614336, 2.130885430516394891E-15 ) ) ;
#143 = FACE_BOUND ( 'NONE', #149, .T. ) ;
#144 = DIRECTION ( 'NONE',  ( -1.000000000000000000, 6.938893903907228378E-17, -0.0000000000000000000 ) ) ;
#145 = DIRECTION ( 'NONE',  ( -1.000000000000000000, 6.938893903907228378E-17, 0.0000000000000000000 ) ) ;
#146 = CARTESIAN_POINT ( 'NONE',  ( -1.647987302177966740E-15, -8.711415741453384598, 0.0000000000000000000 ) ) ;
#147 = DIRECTION ( 'NONE',  ( 0.0000000000000000000, -1.000000000000000000, 0.0000000000000000000 ) ) ;
#148 = AXIS2_PLACEMENT_3D ( 'NONE', #75, #144, #43 ) ;
#149 = EDGE_LOOP ( 'NONE', ( #29, #23 ) ) ;
#150 = ORIENTED_EDGE ( 'NONE', *, *, #171, .T. ) ;
#151 = CIRCLE ( 'NONE', #185, 25.39999999999999858 ) ;
#152 = DIRECTION ( 'NONE',  ( -1.000000000000000000, 6.938893903907228378E-17, -0.0000000000000000000 ) ) ;
#153 =( GEOMETRIC_REPRESENTATION_CONTEXT ( 3 ) GLOBAL_UNCERTAINTY_ASSIGNED_CONTEXT ( ( #82 ) ) GLOBAL_UNIT_ASSIGNED_CONTEXT ( ( #18, #126, #36 ) ) REPRESENTATION_CONTEXT ( 'NONE', 'WORKASPACE' ) );
#154 = EDGE_CURVE ( 'NONE', #83, #7, #151, .T. ) ;
#155 = ORIENTED_EDGE ( 'NONE', *, *, #67, .F. ) ;
#156 = MECHANICAL_DESIGN_GEOMETRIC_PRESENTATION_REPRESENTATION (  '', ( #191 ), #129 ) ;
#157 = DIRECTION ( 'NONE',  ( -0.9692234279359353000, 0.2461827506957275091, 3.014869176448134096E-17 ) ) ;
#158 = DIRECTION ( 'NONE',  ( 0.0000000000000000000, -1.000000000000000000, 0.0000000000000000000 ) ) ;
#159 = DIRECTION ( 'NONE',  ( -1.000000000000000000, 6.938893903907228378E-17, -0.0000000000000000000 ) ) ;
#160 =( LENGTH_UNIT ( ) NAMED_UNIT ( * ) SI_UNIT ( .MILLI., .METRE. ) );
#161 = ORIENTED_EDGE ( 'NONE', *, *, #37, .F. ) ;
#162 = DIRECTION ( 'NONE',  ( -6.938893903907228378E-17, -1.000000000000000000, 0.0000000000000000000 ) ) ;
#163 = EDGE_CURVE ( 'NONE', #186, #21, #85, .T. ) ;
#164 = VECTOR ( 'NONE', #157, 1000.000000000000114 ) ;
#165 = AXIS2_PLACEMENT_3D ( 'NONE', #16, #13, #109 ) ;
#166 = ORIENTED_EDGE ( 'NONE', *, *, #132, .T. ) ;
#167 = FACE_OUTER_BOUND ( 'NONE', #70, .T. ) ;
#168 = PRODUCT_DEFINITION ( 'UNKNOWN', '', #195, #183 ) ;
#169 = CARTESIAN_POINT ( 'NONE',  ( -3.295974604355933479E-15, -32.46141574145338637, 0.0000000000000000000 ) ) ;
#170 = FILL_AREA_STYLE ('',( #32 ) ) ;
#171 = EDGE_CURVE ( 'NONE', #35, #83, #176, .T. ) ;
#172 = DIRECTION ( 'NONE',  ( -6.938893903907228378E-17, -1.000000000000000000, 0.0000000000000000000 ) ) ;
#173 = EDGE_CURVE ( 'NONE', #21, #186, #15, .T. ) ;
#174 = SURFACE_SIDE_STYLE ('',( #136 ) ) ;
#175 = AXIS2_PLACEMENT_3D ( 'NONE', #146, #202, #162 ) ;
#176 = LINE ( 'NONE', #46, #164 ) ;
#177 = FILL_AREA_STYLE_COLOUR ( '', #51 ) ;
#178 = FILL_AREA_STYLE ('',( #177 ) ) ;
#179 = CONICAL_SURFACE ( 'NONE', #141, 23.75000000000000000, 0.2487398113528483390 ) ;
#180 = AXIS2_PLACEMENT_3D ( 'NONE', #100, #152, #27 ) ;
#181 = MECHANICAL_DESIGN_GEOMETRIC_PRESENTATION_REPRESENTATION (  '', ( #118 ), #153 ) ;
#182 = VECTOR ( 'NONE', #78, 1000.000000000000227 ) ;
#183 = PRODUCT_DEFINITION_CONTEXT ( 'detailed design', #125, 'design' ) ;
#184 = VECTOR ( 'NONE', #197, 1000.000000000000114 ) ;
#185 = AXIS2_PLACEMENT_3D ( 'NONE', #211, #103, #11 ) ;
#186 = VERTEX_POINT ( 'NONE', #49 ) ;
#187 = DIRECTION ( 'NONE',  ( -1.000000000000000000, 6.938893903907228378E-17, -0.0000000000000000000 ) ) ;
#188 = FACE_OUTER_BOUND ( 'NONE', #205, .T. ) ;
#189 = LINE ( 'NONE', #192, #40 ) ;
#190 = DIRECTION ( 'NONE',  ( -1.000000000000000000, 6.938893903907228378E-17, -0.0000000000000000000 ) ) ;
#191 = STYLED_ITEM ( 'NONE', ( #24 ), #73 ) ;
#192 = CARTESIAN_POINT ( 'NONE',  ( 0.0000000000000000000, 15.03858425854661540, 2.908536147974964107E-15 ) ) ;
#193 = ADVANCED_FACE ( 'NONE', ( #31 ), #94, .T. ) ;
#194 = DIRECTION ( 'NONE',  ( -6.938893903907228378E-17, -1.000000000000000000, 0.0000000000000000000 ) ) ;
#195 = PRODUCT_DEFINITION_FORMATION_WITH_SPECIFIED_SOURCE ( 'ANY', '', #208, .NOT_KNOWN. ) ;
#196 = ORIENTED_EDGE ( 'NONE', *, *, #171, .F. ) ;
#197 = DIRECTION ( 'NONE',  ( -0.9692234279359353000, -0.2461827506957273981, 0.0000000000000000000 ) ) ;
#198 =( NAMED_UNIT ( * ) PLANE_ANGLE_UNIT ( ) SI_UNIT ( $, .RADIAN. ) );
#199 = CARTESIAN_POINT ( 'NONE',  ( 0.0000000000000000000, 0.0000000000000000000, 0.0000000000000000000 ) ) ;
#200 = DIRECTION ( 'NONE',  ( 0.0000000000000000000, 0.0000000000000000000, 1.000000000000000000 ) ) ;
#201 = ORIENTED_EDGE ( 'NONE', *, *, #42, .F. ) ;
#202 = DIRECTION ( 'NONE',  ( -1.000000000000000000, 6.938893903907228378E-17, -0.0000000000000000000 ) ) ;
#203 = CLOSED_SHELL ( 'NONE', ( #193, #41, #104, #12, #139, #210 ) ) ;
#204 = COLOUR_RGB ( '',0.7921568627450980005, 0.8196078431372548767, 0.9333333333333333481 ) ;
#205 = EDGE_LOOP ( 'NONE', ( #112, #120 ) ) ;
#206 = ORIENTED_EDGE ( 'NONE', *, *, #54, .T. ) ;
#207 = CIRCLE ( 'NONE', #95, 11.05000000000000071 ) ;
#208 = PRODUCT ( 'CR 2''''''''x1''''''''', 'CR 2''''''''x1''''''''', '', ( #17 ) ) ;
#209 = DIRECTION ( 'NONE',  ( 0.0000000000000000000, -1.000000000000000000, 0.0000000000000000000 ) ) ;
#210 = ADVANCED_FACE ( 'NONE', ( #20, #123 ), #33, .F. ) ;
#211 = CARTESIAN_POINT ( 'NONE',  ( -1.762479051592436008E-15, -8.711415741453384598, 0.0000000000000000000 ) ) ;
#212 = EDGE_LOOP ( 'NONE', ( #26, #150, #201, #121 ) ) ;
#213 = CARTESIAN_POINT ( 'NONE',  ( 50.00000000000000000, -8.711415741453388151, 0.0000000000000000000 ) ) ;
#214 = DIRECTION ( 'NONE',  ( -6.938893903907228378E-17, -1.000000000000000000, 0.0000000000000000000 ) ) ;
ENDSEC;
END-ISO-10303-21;
