ISO-10303-21;
HEADER;
/****************************************************************
 * Generated by software with PDE/Lib inside                    *
 * PDElib Version v51a, created Thu 12/14/2006                  *
 * International Technegroup Inc. (www.iti-oh.com)              *
 ****************************************************************/
FILE_DESCRIPTION((''),'2;1');
FILE_NAME('T:\\Arbeitspl\S\dtze\\Aushilfe\\KPeters\\3D\\Steps 08_10\\47201\\47201212X.stp','2010-08-17T10:23:26',('thilbrands'),(''),'Autodesk Inventor 2008','Autodesk Inventor 2008','');
FILE_SCHEMA(('AUTOMOTIVE_DESIGN { 1 0 10303 214 1 1 1 1 }'));
ENDSEC;
DATA;
#5=APPLICATION_CONTEXT('automotive design');
#6=APPLICATION_PROTOCOL_DEFINITION('International Standard','automotive_design',2001,#5);
#7=PRODUCT_CONTEXT('',#5,'mechanical');
#8=PRODUCT('472011001','472011001',$,(#7));
#9=PRODUCT_RELATED_PRODUCT_CATEGORY('part',$,(#8));
#10=PRODUCT_DEFINITION_FORMATION('',$,#8);
#11=PRODUCT_DEFINITION_CONTEXT('part definition',#5,'design');
#12=PRODUCT_DEFINITION('',$,#10,#11);
#18=(NAMED_UNIT(*)PLANE_ANGLE_UNIT()SI_UNIT($,.RADIAN.));
#19=DIMENSIONAL_EXPONENTS(0.0,0.0,0.0,0.0,0.0,0.0,0.0);
#20=PLANE_ANGLE_MEASURE_WITH_UNIT(PLANE_ANGLE_MEASURE(0.017453292500000),#18);
#24=(CONVERSION_BASED_UNIT('DEGREE',#20)NAMED_UNIT(#19)PLANE_ANGLE_UNIT());
#28=(NAMED_UNIT(*)SI_UNIT($,.STERADIAN.)SOLID_ANGLE_UNIT());
#32=(LENGTH_UNIT()NAMED_UNIT(*)SI_UNIT(.MILLI.,.METRE.));
#34=UNCERTAINTY_MEASURE_WITH_UNIT(LENGTH_MEASURE(0.010000000000000),#32,'DISTANCE_ACCURACY_VALUE','');
#36=(GEOMETRIC_REPRESENTATION_CONTEXT(3)GLOBAL_UNCERTAINTY_ASSIGNED_CONTEXT((#34))GLOBAL_UNIT_ASSIGNED_CONTEXT((#24,#28,#32))REPRESENTATION_CONTEXT('None','None'));
#37=AXIS2_PLACEMENT_3D('',#38,#39,#40);
#38=CARTESIAN_POINT('',(0.0,0.0,0.0));
#39=DIRECTION('',(0.0,0.0,1.0));
#40=DIRECTION('',(1.0,0.0,0.0));
#41=SHAPE_REPRESENTATION('',(#37),#36);
#42=PRODUCT_DEFINITION_SHAPE('','',#12);
#43=SHAPE_DEFINITION_REPRESENTATION(#42,#41);
#49=(NAMED_UNIT(*)PLANE_ANGLE_UNIT()SI_UNIT($,.RADIAN.));
#50=DIMENSIONAL_EXPONENTS(0.0,0.0,0.0,0.0,0.0,0.0,0.0);
#51=PLANE_ANGLE_MEASURE_WITH_UNIT(PLANE_ANGLE_MEASURE(0.017453292500000),#49);
#55=(CONVERSION_BASED_UNIT('DEGREE',#51)NAMED_UNIT(#50)PLANE_ANGLE_UNIT());
#59=(NAMED_UNIT(*)SI_UNIT($,.STERADIAN.)SOLID_ANGLE_UNIT());
#63=(LENGTH_UNIT()NAMED_UNIT(*)SI_UNIT(.MILLI.,.METRE.));
#65=UNCERTAINTY_MEASURE_WITH_UNIT(LENGTH_MEASURE(0.000001000000000),#63,'DISTANCE_ACCURACY_VALUE','');
#67=(GEOMETRIC_REPRESENTATION_CONTEXT(3)GLOBAL_UNCERTAINTY_ASSIGNED_CONTEXT((#65))GLOBAL_UNIT_ASSIGNED_CONTEXT((#55,#59,#63))REPRESENTATION_CONTEXT('','3D'));
#68=CARTESIAN_POINT('',(0.0,0.0,-165.0));
#69=DIRECTION('',(0.0,0.0,1.0));
#70=DIRECTION('',(1.0,0.0,0.0));
#71=AXIS2_PLACEMENT_3D('',#68,#69,#70);
#72=CYLINDRICAL_SURFACE('',#71,30.099999999999998);
#73=CARTESIAN_POINT('',(-1.843033E-015,30.100000000000001,5.606613E-015));
#74=VERTEX_POINT('',#73);
#75=CARTESIAN_POINT('',(-1.843033E-015,-30.100000000000001,5.606613E-015));
#76=VERTEX_POINT('',#75);
#77=CARTESIAN_POINT('',(-1.843033E-015,30.100000000000001,5.606613E-015));
#78=CARTESIAN_POINT('',(-1.873634E-015,30.100000000000001,-0.142121797918730));
#79=CARTESIAN_POINT('',(0.000183623069590,30.100000001680257,-0.284243120130081));
#80=CARTESIAN_POINT('',(0.000550868478952,30.099999994959198,-0.426364443563486));
#81=CARTESIAN_POINT('',(0.018376520162972,30.099999668726984,-7.324763017998137));
#82=CARTESIAN_POINT('',(0.468137029494395,30.105788130009508,-13.884443494185025));
#83=CARTESIAN_POINT('',(1.220930013228378,30.075227844569991,-20.072541054021386));
#84=CARTESIAN_POINT('',(2.070856972419973,30.040724320976029,-27.059097857626227));
#85=CARTESIAN_POINT('',(3.306619415811225,29.953186003975159,-33.572177160498562));
#86=CARTESIAN_POINT('',(4.743458590386347,29.723889392226074,-39.564394786569146));
#87=CARTESIAN_POINT('',(5.251835296155334,29.642760579629869,-41.684537326455995));
#88=CARTESIAN_POINT('',(5.783460920133068,29.544653351945406,-43.733083594907924));
#89=CARTESIAN_POINT('',(6.340723433635633,29.424568413795701,-45.743182367427877));
#90=CARTESIAN_POINT('',(8.483498272378728,28.962820175318463,-53.472374568195399));
#91=CARTESIAN_POINT('',(10.988839120285066,28.173020448468964,-60.557792416793774));
#92=CARTESIAN_POINT('',(13.584923804992767,26.860004564641095,-66.955394522380487));
#93=CARTESIAN_POINT('',(14.505379449651718,26.394467793473595,-69.223698405168619));
#94=CARTESIAN_POINT('',(15.437477003574966,25.863658851001535,-71.405524723875573));
#95=CARTESIAN_POINT('',(16.369893247751818,25.259386276337139,-73.498739933131546));
#96=CARTESIAN_POINT('',(16.931684977179476,24.895304958699750,-74.759926661501268));
#97=CARTESIAN_POINT('',(17.495413569220077,24.502973321837395,-75.992617192335445));
#98=CARTESIAN_POINT('',(18.047111428263623,24.089661041530576,-77.172189105447842));
#99=CARTESIAN_POINT('',(19.685053626987870,22.862573399140341,-80.674233895446193));
#100=CARTESIAN_POINT('',(21.232647867078043,21.440262126173579,-83.749058963161644));
#101=CARTESIAN_POINT('',(22.631285882313449,19.845273979287850,-86.419467373754642));
#102=CARTESIAN_POINT('',(23.426551914313176,18.938363198340056,-87.937862467680034));
#103=CARTESIAN_POINT('',(24.174710935462432,17.974878948083397,-89.326581242129492));
#104=CARTESIAN_POINT('',(24.865558490793191,16.962134327405337,-90.584956267372320));
#105=CARTESIAN_POINT('',(25.847640444132516,15.522456054485609,-92.373813148008196));
#106=CARTESIAN_POINT('',(26.706901521392798,13.993363025685021,-93.887382746923777));
#107=CARTESIAN_POINT('',(27.427788101993407,12.398646693577025,-95.137637524051598));
#108=CARTESIAN_POINT('',(27.733555900473004,11.722239453950142,-95.667939600728445));
#109=CARTESIAN_POINT('',(28.014517448459372,11.034018866811177,-96.150824029179901));
#110=CARTESIAN_POINT('',(28.269813293398801,10.335746531159327,-96.586947290105456));
#111=CARTESIAN_POINT('',(28.494440500802529,9.721357508094856,-96.970679153069227));
#112=CARTESIAN_POINT('',(28.699120453164557,9.100514656345759,-97.318091644322379));
#113=CARTESIAN_POINT('',(28.887373719103984,8.457519708095290,-97.636229583614721));
#114=CARTESIAN_POINT('',(29.168989893063284,7.495635852865281,-98.112145838282160));
#115=CARTESIAN_POINT('',(29.410487138605873,6.492569056942382,-98.516816680237383));
#116=CARTESIAN_POINT('',(29.602182931715785,5.451675492656792,-98.836837097643979));
#117=CARTESIAN_POINT('',(29.719635718516713,4.813915801089665,-99.032914900123714));
#118=CARTESIAN_POINT('',(29.818558375155803,4.160559252776963,-99.197484337771826));
#119=CARTESIAN_POINT('',(29.896199937224370,3.496745531705904,-99.326461626718839));
#120=CARTESIAN_POINT('',(30.022374048085510,2.417992041924238,-99.536060639420285));
#121=CARTESIAN_POINT('',(30.090840073167474,1.326042845549962,-99.649272014425961));
#122=CARTESIAN_POINT('',(30.099140870682518,0.227417780326665,-99.663014640965173));
#123=CARTESIAN_POINT('',(30.106688726675383,-0.771554157903437,-99.675510713287579));
#124=CARTESIAN_POINT('',(30.063480948697098,-1.781645282538062,-99.604073334482976));
#125=CARTESIAN_POINT('',(29.972644349763826,-2.765970115993778,-99.453369150683216));
#126=CARTESIAN_POINT('',(29.854155641008781,-4.049939131581541,-99.256788209167183));
#127=CARTESIAN_POINT('',(29.655609659840511,-5.298955118072069,-98.926998194152830));
#128=CARTESIAN_POINT('',(29.388835034719122,-6.504335116064189,-98.480026205608397));
#129=CARTESIAN_POINT('',(29.217531553791176,-7.278343473879391,-98.193012935586523));
#130=CARTESIAN_POINT('',(29.016594201246495,-8.041907886324331,-97.855143589573117));
#131=CARTESIAN_POINT('',(28.785513731908964,-8.797965627921045,-97.463939647081602));
#132=CARTESIAN_POINT('',(28.404875987872931,-10.043350467009256,-96.819545135702683));
#133=CARTESIAN_POINT('',(27.943302324803593,-11.264108773252341,-96.032101602813484));
#134=CARTESIAN_POINT('',(27.404252128685780,-12.450580920881585,-95.096809633479893));
#135=CARTESIAN_POINT('',(27.194935188866054,-12.911296306780105,-94.733629257572773));
#136=CARTESIAN_POINT('',(26.973951717164486,-13.366832314372205,-94.348135410512398));
#137=CARTESIAN_POINT('',(26.741576718859704,-13.816586937060119,-93.939982527269535));
#138=CARTESIAN_POINT('',(26.537424901429240,-14.211716466008248,-93.581401984993533));
#139=CARTESIAN_POINT('',(26.326015014874031,-14.599232454450744,-93.207998087357169));
#140=CARTESIAN_POINT('',(26.111087833271466,-14.974013896186376,-92.825960727479611));
#141=CARTESIAN_POINT('',(24.987251705305027,-16.933714484884838,-90.828319554027502));
#142=CARTESIAN_POINT('',(23.745751745725954,-18.591270908751877,-88.553558750775849));
#143=CARTESIAN_POINT('',(22.505937435527592,-19.987315481277559,-86.179808271567353));
#144=CARTESIAN_POINT('',(22.258405525943946,-20.266039138569337,-85.705883277993465));
#145=CARTESIAN_POINT('',(22.009378543819295,-20.536113733348838,-85.225224488408259));
#146=CARTESIAN_POINT('',(21.755732685854682,-20.801396474795485,-84.731291659764324));
#147=CARTESIAN_POINT('',(20.675805803394077,-21.930868748618501,-82.628314918638893));
#148=CARTESIAN_POINT('',(19.530073151549320,-22.952917212489474,-80.319909772896494));
#149=CARTESIAN_POINT('',(18.340647087787023,-23.866936636301887,-77.797259199599836));
#150=CARTESIAN_POINT('',(17.523332584318460,-24.495005378272179,-76.063819044255567));
#151=CARTESIAN_POINT('',(16.685459797045844,-25.071972470683033,-74.229127419189012));
#152=CARTESIAN_POINT('',(15.835732027357459,-25.597648156768720,-72.289636664102588));
#153=CARTESIAN_POINT('',(15.270191361441118,-25.947514299985329,-70.998798665984197));
#154=CARTESIAN_POINT('',(14.697690639728842,-26.275425335671905,-69.657046643522051));
#155=CARTESIAN_POINT('',(14.132281983861034,-26.576090869964993,-68.290944163001186));
#156=CARTESIAN_POINT('',(10.945369739268566,-28.270784898472414,-60.590940497761949));
#157=CARTESIAN_POINT('',(7.914384512307741,-29.146786549108914,-51.976591890924851));
#158=CARTESIAN_POINT('',(5.473302454954510,-29.598191840661290,-42.499291878041873));
#159=CARTESIAN_POINT('',(5.104283795891104,-29.666430831186418,-41.066607330727777));
#160=CARTESIAN_POINT('',(4.749275444935480,-29.724956978340359,-39.616086468885889));
#161=CARTESIAN_POINT('',(4.408484124753210,-29.775413812771752,-38.141837412067133));
#162=CARTESIAN_POINT('',(2.885474679587839,-30.000907335819978,-31.553361987105514));
#163=CARTESIAN_POINT('',(1.613461057603115,-30.066900439757266,-24.353346024651486));
#164=CARTESIAN_POINT('',(0.831609619192299,-30.088509857440041,-16.565964334546745));
#165=CARTESIAN_POINT('',(0.316855228207368,-30.102737039347446,-11.438917529587364));
#166=CARTESIAN_POINT('',(0.015100306648979,-30.099999728685880,-6.056892028757877));
#167=CARTESIAN_POINT('',(0.000550868478952,-30.099999994959198,-0.426364443563488));
#168=CARTESIAN_POINT('',(0.000183623069590,-30.100000001680257,-0.284243120130081));
#169=CARTESIAN_POINT('',(-1.873634E-015,-30.100000000000001,-0.142121797918730));
#170=CARTESIAN_POINT('',(-1.843033E-015,-30.100000000000001,5.606613E-015));
#171=B_SPLINE_CURVE_WITH_KNOTS('',3,(#77,#78,#79,#80,#81,#82,#83,#84,#85,#86,#87,#88,#89,#90,#91,#92,#93,#94,#95,#96,#97,#98,#99,#100,#101,#102,#103,#104,#105,#106,#107,#108,#109,#110,#111,#112,#113,#114,#115,#116,#117,#118,#119,#120,#121,#122,#123,#124,#125,#126,#127,#128,#129,#130,#131,#132,#133,#134,#135,#136,#137,#138,#139,#140,#141,#142,#143,#144,#145,#146,#147,#148,#149,#150,#151,#152,#153,#154,#155,#156,#157,#158,#159,#160,#161,#162,#163,#164,#165,#166,#167,#168,#169,#170),.UNSPECIFIED.,.F.,.U.,(4,3,3,3,3,3,3,3,3,3,3,3,3,3,3,3,3,3,3,3,3,3,3,3,3,3,3,3,3,3,3,4),(-33.766050564061828,-33.729600636991648,-31.960364896254969,-29.962842090239032,-29.256086538337346,-26.538484013383094,-25.574943571590765,-24.994399147843755,-23.270814047227610,-22.290782996412688,-20.897609059136894,-20.306687076173834,-19.786752429928576,-19.008959784187248,-18.532403088218409,-17.757958115876274,-17.053760824586607,-16.135194643844770,-15.545357495157306,-14.573772651709975,-14.196499500396298,-13.865048182180963,-12.131917159408342,-11.785893381414580,-10.312656708737757,-9.300321653785433,-8.626556876957972,-4.828897971381243,-4.254805432093311,-1.689163914971176,0.0,0.042636539375621),.UNSPECIFIED.);
#172=EDGE_CURVE('',#74,#76,#171,.T.);
#173=ORIENTED_EDGE('',*,*,#172,.F.);
#174=CARTESIAN_POINT('',(0.0,0.0,-2.037230E-014));
#175=DIRECTION('',(0.0,0.0,-1.0));
#176=DIRECTION('',(-1.0,0.0,0.0));
#177=AXIS2_PLACEMENT_3D('',#174,#175,#176);
#178=CIRCLE('',#177,30.100000000000001);
#179=EDGE_CURVE('',#76,#74,#178,.T.);
#180=ORIENTED_EDGE('',*,*,#179,.F.);
#181=EDGE_LOOP('',(#173,#180));
#182=FACE_OUTER_BOUND('',#181,.T.);
#183=CARTESIAN_POINT('',(-30.099999999999998,3.686187E-015,-165.0));
#184=VERTEX_POINT('',#183);
#185=CARTESIAN_POINT('',(0.0,0.0,-165.0));
#186=DIRECTION('',(0.0,0.0,1.0));
#187=DIRECTION('',(1.0,0.0,0.0));
#188=AXIS2_PLACEMENT_3D('',#185,#186,#187);
#189=CIRCLE('',#188,30.099999999999998);
#190=EDGE_CURVE('',#184,#184,#189,.T.);
#191=ORIENTED_EDGE('',*,*,#190,.F.);
#192=EDGE_LOOP('',(#191));
#193=FACE_BOUND('',#192,.T.);
#194=ADVANCED_FACE('',(#182,#193),#72,.F.);
#195=CARTESIAN_POINT('',(82.500000000000000,0.0,-1.776357E-014));
#196=DIRECTION('',(0.0,1.0,0.0));
#197=DIRECTION('',(0.0,0.0,1.0));
#198=AXIS2_PLACEMENT_3D('',#195,#196,#197);
#199=TOROIDAL_SURFACE('',#198,82.500000000000000,30.100000000000001);
#200=CARTESIAN_POINT('',(82.499999999999986,3.686187E-015,-52.400000000000020));
#201=VERTEX_POINT('',#200);
#202=CARTESIAN_POINT('',(82.500000000000000,0.0,-82.500000000000014));
#203=DIRECTION('',(-1.0,0.0,0.0));
#204=DIRECTION('',(0.0,0.0,-1.0));
#205=AXIS2_PLACEMENT_3D('',#202,#203,#204);
#206=CIRCLE('',#205,30.100000000000001);
#207=EDGE_CURVE('',#201,#201,#206,.T.);
#208=ORIENTED_EDGE('',*,*,#207,.F.);
#209=EDGE_LOOP('',(#208));
#210=FACE_OUTER_BOUND('',#209,.T.);
#211=ORIENTED_EDGE('',*,*,#172,.T.);
#212=CARTESIAN_POINT('',(0.0,0.0,-2.037230E-014));
#213=DIRECTION('',(0.0,0.0,-1.0));
#214=DIRECTION('',(-1.0,0.0,0.0));
#215=AXIS2_PLACEMENT_3D('',#212,#213,#214);
#216=CIRCLE('',#215,30.100000000000001);
#217=EDGE_CURVE('',#74,#76,#216,.T.);
#218=ORIENTED_EDGE('',*,*,#217,.F.);
#219=EDGE_LOOP('',(#211,#218));
#220=FACE_BOUND('',#219,.T.);
#221=ADVANCED_FACE('',(#210,#220),#199,.F.);
#222=CARTESIAN_POINT('',(0.0,0.0,-165.0));
#223=DIRECTION('',(0.0,0.0,1.0));
#224=DIRECTION('',(-1.0,0.0,0.0));
#225=AXIS2_PLACEMENT_3D('',#222,#223,#224);
#226=CYLINDRICAL_SURFACE('',#225,31.750000000000004);
#227=CARTESIAN_POINT('',(31.750000000000004,3.888254E-015,-165.0));
#228=VERTEX_POINT('',#227);
#229=CARTESIAN_POINT('',(0.0,0.0,-165.0));
#230=DIRECTION('',(0.0,0.0,-1.0));
#231=DIRECTION('',(-1.0,0.0,0.0));
#232=AXIS2_PLACEMENT_3D('',#229,#230,#231);
#233=CIRCLE('',#232,31.750000000000004);
#234=EDGE_CURVE('',#228,#228,#233,.T.);
#235=ORIENTED_EDGE('',*,*,#234,.F.);
#236=EDGE_LOOP('',(#235));
#237=FACE_OUTER_BOUND('',#236,.T.);
#238=CARTESIAN_POINT('',(-1.944063E-015,-31.750000000000004,5.606613E-015));
#239=VERTEX_POINT('',#238);
#240=CARTESIAN_POINT('',(-1.944063E-015,31.750000000000004,5.606613E-015));
#241=VERTEX_POINT('',#240);
#242=CARTESIAN_POINT('',(-1.944063E-015,-31.750000000000004,5.606613E-015));
#243=CARTESIAN_POINT('',(-1.973833E-015,-31.750000000000004,-0.138263254692179));
#244=CARTESIAN_POINT('',(0.000173788366641,-31.750000001426866,-0.276526264672969));
#245=CARTESIAN_POINT('',(0.000521363571469,-31.749999995719371,-0.414789082485827));
#246=CARTESIAN_POINT('',(0.017568929612324,-31.749999715783026,-7.196182714196102));
#247=CARTESIAN_POINT('',(0.452044072188782,-31.755186167284663,-13.651757801348481));
#248=CARTESIAN_POINT('',(1.182080092568809,-31.727987434672762,-19.750605827359117));
#249=CARTESIAN_POINT('',(1.930033288165177,-31.700121167248518,-25.999137054813676));
#250=CARTESIAN_POINT('',(2.987954301155174,-31.633726890025670,-31.873328767210879));
#251=CARTESIAN_POINT('',(4.225070806404818,-31.467622672850041,-37.339970087208073));
#252=CARTESIAN_POINT('',(4.598899906252287,-31.417429671848002,-38.991867540011960));
#253=CARTESIAN_POINT('',(4.989108798813979,-31.358229608162791,-40.606542963964344));
#254=CARTESIAN_POINT('',(5.392154961306874,-31.288770587436858,-42.183066949088307));
#255=CARTESIAN_POINT('',(5.698150103675781,-31.236036868786922,-43.379973720988183));
#256=CARTESIAN_POINT('',(6.012083764050606,-31.177332989285031,-44.557236986210633));
#257=CARTESIAN_POINT('',(6.335215318810199,-31.111533984429517,-45.723309757796073));
#258=CARTESIAN_POINT('',(8.882560830882717,-30.592820174995985,-54.915820355091576));
#259=CARTESIAN_POINT('',(11.958462630391413,-29.636482920770447,-63.261557482922015));
#260=CARTESIAN_POINT('',(15.158486439477700,-27.897720137390635,-70.726943416407053));
#261=CARTESIAN_POINT('',(15.611368572350262,-27.651642406449838,-71.783479275507077));
#262=CARTESIAN_POINT('',(16.067543823725678,-27.389448128869816,-72.823953672826164));
#263=CARTESIAN_POINT('',(16.523670317253600,-27.111451810014017,-73.843152727207510));
#264=CARTESIAN_POINT('',(17.905202233732282,-26.269446812250472,-76.930138558664211));
#265=CARTESIAN_POINT('',(19.256109567180090,-25.300591164541988,-79.757012683669146));
#266=CARTESIAN_POINT('',(20.544410058500553,-24.207224445363028,-82.338662360431783));
#267=CARTESIAN_POINT('',(21.148300913807020,-23.694708795747889,-83.548810646414267));
#268=CARTESIAN_POINT('',(21.738564720815639,-23.154871917300181,-84.705042712045227));
#269=CARTESIAN_POINT('',(22.312487372851848,-22.587948274164411,-85.808629129249681));
#270=CARTESIAN_POINT('',(22.761296439781070,-22.144612451134677,-86.671636693812658));
#271=CARTESIAN_POINT('',(23.200120856740643,-21.684712724671837,-87.502448234424321));
#272=CARTESIAN_POINT('',(23.627769107721562,-21.208277322597390,-88.301550414180838));
#273=CARTESIAN_POINT('',(23.901029070920004,-20.903843199135704,-88.812163123881376));
#274=CARTESIAN_POINT('',(24.169747428458244,-20.592809405626955,-89.309918276248098));
#275=CARTESIAN_POINT('',(24.439066044897064,-20.268067269800532,-89.804742607593028));
#276=CARTESIAN_POINT('',(25.440155650333402,-19.060961794056798,-91.644064007563614));
#277=CARTESIAN_POINT('',(26.428960327100508,-17.687392674879419,-93.402910964220027));
#278=CARTESIAN_POINT('',(27.347795176207093,-16.129494691410020,-94.998802140597263));
#279=CARTESIAN_POINT('',(27.636403297596228,-15.640155382216197,-95.500075198322037));
#280=CARTESIAN_POINT('',(27.918058760271872,-15.132613693983332,-95.985296230252217));
#281=CARTESIAN_POINT('',(28.190804194039369,-14.606199330877704,-96.451881184521199));
#282=CARTESIAN_POINT('',(28.431674818452343,-14.141305181818179,-96.863937979474812));
#283=CARTESIAN_POINT('',(28.662914273574462,-13.666620278451633,-97.256866414995997));
#284=CARTESIAN_POINT('',(28.881396944372831,-13.188154174924245,-97.626128631852652));
#285=CARTESIAN_POINT('',(29.698633280176331,-11.398447541331509,-99.007357174839058));
#286=CARTESIAN_POINT('',(30.349141875518765,-9.532516580516829,-100.079042290213920));
#287=CARTESIAN_POINT('',(30.821760937685156,-7.621125422152923,-100.852273694925220));
#288=CARTESIAN_POINT('',(31.021238553190610,-6.814387435705804,-101.178630308936350));
#289=CARTESIAN_POINT('',(31.189333081361060,-6.000114611561637,-101.452105291626470));
#290=CARTESIAN_POINT('',(31.326779337935200,-5.166758782091184,-101.675155183154840));
#291=CARTESIAN_POINT('',(31.503318199783067,-4.096379032827958,-101.961645153614460));
#292=CARTESIAN_POINT('',(31.627758576480101,-3.000002067354849,-102.162477436391480));
#293=CARTESIAN_POINT('',(31.694127192801446,-1.882764320493649,-102.269555458232450));
#294=CARTESIAN_POINT('',(31.738272769857737,-1.139625352439006,-102.340779198099610));
#295=CARTESIAN_POINT('',(31.756395964914901,-0.386945118813990,-102.369970463525520));
#296=CARTESIAN_POINT('',(31.747974812731687,0.358601854644524,-102.356395443574800));
#297=CARTESIAN_POINT('',(31.735905241525938,1.427153056144638,-102.336939119030360));
#298=CARTESIAN_POINT('',(31.669918251118634,2.488541050517922,-102.230666547154240));
#299=CARTESIAN_POINT('',(31.552319767784699,3.537459154741288,-102.040509227311060));
#300=CARTESIAN_POINT('',(31.466285589582650,4.304839860169708,-101.901391542473620));
#301=CARTESIAN_POINT('',(31.352471101383397,5.064486949998387,-101.717084370008390));
#302=CARTESIAN_POINT('',(31.215217380849104,5.802818613944067,-101.493949256496110));
#303=CARTESIAN_POINT('',(30.948059052282193,7.239948715043737,-101.059626574834180));
#304=CARTESIAN_POINT('',(30.590856113196956,8.609066419975447,-100.476244802858280));
#305=CARTESIAN_POINT('',(30.166170364331506,9.902760501502970,-99.773925552868775));
#306=CARTESIAN_POINT('',(29.968801480873008,10.503993194358999,-99.447528995950748));
#307=CARTESIAN_POINT('',(29.757422600802567,11.088198084830648,-99.096400433279783));
#308=CARTESIAN_POINT('',(29.527952351217159,11.668870122863172,-98.712837442258078));
#309=CARTESIAN_POINT('',(28.581279616434657,14.064415459346463,-97.130459655473430));
#310=CARTESIAN_POINT('',(27.341906223465060,16.341908658525949,-95.025780321177024));
#311=CARTESIAN_POINT('',(25.853443387908492,18.429920373897730,-92.366857248743770));
#312=CARTESIAN_POINT('',(25.188420718237065,19.362812409957563,-91.178890658083589));
#313=CARTESIAN_POINT('',(24.477403600875320,20.253133539461814,-89.885998842997864));
#314=CARTESIAN_POINT('',(23.728576430336577,21.095429850791746,-88.489718171158600));
#315=CARTESIAN_POINT('',(22.607970610873554,22.355910486810181,-86.400210327391235));
#316=CARTESIAN_POINT('',(21.400958513330995,23.510627587969246,-84.076764075221007));
#317=CARTESIAN_POINT('',(20.133194222825903,24.550295118103360,-81.510453891096404));
#318=CARTESIAN_POINT('',(19.507414915835373,25.063483911462317,-80.243701214299989));
#319=CARTESIAN_POINT('',(18.866930985686540,25.548660745683218,-78.917738488335857));
#320=CARTESIAN_POINT('',(18.215460169386279,26.004990113774355,-77.531295977156717));
#321=CARTESIAN_POINT('',(17.700500029666323,26.365699188180884,-76.435371783153471));
#322=CARTESIAN_POINT('',(17.178102172491226,26.708567125674119,-75.300131044981157));
#323=CARTESIAN_POINT('',(16.658704653328403,27.028689558933017,-74.144268393439376));
#324=CARTESIAN_POINT('',(14.623250742939199,28.283209333363946,-69.614587239502256));
#325=CARTESIAN_POINT('',(12.602898573488639,29.211223687897501,-64.704963414793767));
#326=CARTESIAN_POINT('',(10.704492750912793,29.891074503029422,-59.434691955130262));
#327=CARTESIAN_POINT('',(9.240554810562037,30.415335116968961,-55.370571283987026));
#328=CARTESIAN_POINT('',(7.849318307507089,30.791679255124244,-51.091950818603543));
#329=CARTESIAN_POINT('',(6.582537132899448,31.060146569100414,-46.607266105799674));
#330=CARTESIAN_POINT('',(6.193755229309299,31.142540620631625,-45.230892431644335));
#331=CARTESIAN_POINT('',(5.817316343250908,31.214711946099026,-43.837481023665973));
#332=CARTESIAN_POINT('',(5.452798733879809,31.278258998348978,-42.419613178108378));
#333=CARTESIAN_POINT('',(3.641011269844792,31.594111373331579,-35.372285086958925));
#334=CARTESIAN_POINT('',(2.082430081088366,31.696858831789307,-27.557793095856162));
#335=CARTESIAN_POINT('',(1.100740147849556,31.730913493420140,-19.058967673784213));
#336=CARTESIAN_POINT('',(0.419864548239469,31.754532955505194,-13.164394795621680));
#337=CARTESIAN_POINT('',(0.016926125205853,31.749999726338427,-6.940480609273317));
#338=CARTESIAN_POINT('',(0.000521363571464,31.749999995719374,-0.414789082485832));
#339=CARTESIAN_POINT('',(0.000173788366614,31.750000001426866,-0.276526264668126));
#340=CARTESIAN_POINT('',(-1.973833E-015,31.750000000000004,-0.138263254697022));
#341=CARTESIAN_POINT('',(-1.944063E-015,31.750000000000004,5.606613E-015));
#342=B_SPLINE_CURVE_WITH_KNOTS('',3,(#242,#243,#244,#245,#246,#247,#248,#249,#250,#251,#252,#253,#254,#255,#256,#257,#258,#259,#260,#261,#262,#263,#264,#265,#266,#267,#268,#269,#270,#271,#272,#273,#274,#275,#276,#277,#278,#279,#280,#281,#282,#283,#284,#285,#286,#287,#288,#289,#290,#291,#292,#293,#294,#295,#296,#297,#298,#299,#300,#301,#302,#303,#304,#305,#306,#307,#308,#309,#310,#311,#312,#313,#314,#315,#316,#317,#318,#319,#320,#321,#322,#323,#324,#325,#326,#327,#328,#329,#330,#331,#332,#333,#334,#335,#336,#337,#338,#339,#340,#341),.UNSPECIFIED.,.F.,.U.,(4,3,3,3,3,3,3,3,3,3,3,3,3,3,3,3,3,3,3,3,3,3,3,3,3,3,3,3,3,3,3,3,3,4),(-40.367929532822167,-40.320663683165343,-38.002409672936039,-35.627259068377541,-34.909541368600266,-34.364645646567674,-30.069064940746713,-29.461134541461998,-27.619813632620623,-26.756694456601227,-26.081732925350245,-25.650443979898114,-24.047291231154482,-23.543737296990347,-23.099031958124360,-21.435607759220783,-20.733528813758070,-19.831763854503034,-19.231948208163367,-18.372265649730334,-17.743328266078915,-16.519129318790068,-15.950193864744449,-13.603067458732376,-12.554406900137508,-10.985106037620319,-10.210485697261628,-9.598181064850925,-7.198635798638193,-5.348248851324913,-4.780355221252899,-1.957713643950292,0.0,0.041478976409108),.UNSPECIFIED.);
#343=EDGE_CURVE('',#239,#241,#342,.T.);
#344=ORIENTED_EDGE('',*,*,#343,.F.);
#345=CARTESIAN_POINT('',(0.0,0.0,0.0));
#346=DIRECTION('',(0.0,0.0,-1.0));
#347=DIRECTION('',(-1.0,0.0,0.0));
#348=AXIS2_PLACEMENT_3D('',#345,#346,#347);
#349=CIRCLE('',#348,31.750000000000004);
#350=EDGE_CURVE('',#239,#241,#349,.T.);
#351=ORIENTED_EDGE('',*,*,#350,.T.);
#352=EDGE_LOOP('',(#344,#351));
#353=FACE_BOUND('',#352,.T.);
#354=ADVANCED_FACE('',(#237,#353),#226,.T.);
#355=CARTESIAN_POINT('',(0.0,0.0,-165.0));
#356=DIRECTION('',(0.0,0.0,-1.0));
#357=DIRECTION('',(-1.0,0.0,0.0));
#358=AXIS2_PLACEMENT_3D('',#355,#356,#357);
#359=PLANE('',#358);
#360=ORIENTED_EDGE('',*,*,#234,.T.);
#361=EDGE_LOOP('',(#360));
#362=FACE_OUTER_BOUND('',#361,.T.);
#363=ORIENTED_EDGE('',*,*,#190,.T.);
#364=EDGE_LOOP('',(#363));
#365=FACE_BOUND('',#364,.T.);
#366=ADVANCED_FACE('',(#362,#365),#359,.T.);
#367=CARTESIAN_POINT('',(82.500000000000000,0.0,-1.776357E-014));
#368=DIRECTION('',(0.0,1.0,0.0));
#369=DIRECTION('',(0.0,0.0,1.0));
#370=AXIS2_PLACEMENT_3D('',#367,#368,#369);
#371=TOROIDAL_SURFACE('',#370,82.500000000000000,31.750000000000004);
#372=CARTESIAN_POINT('',(82.499999999999986,3.888254E-015,-50.750000000000014));
#373=VERTEX_POINT('',#372);
#374=CARTESIAN_POINT('',(82.499999999999986,0.0,-82.500000000000014));
#375=DIRECTION('',(1.0,0.0,0.0));
#376=DIRECTION('',(0.0,0.0,-1.0));
#377=AXIS2_PLACEMENT_3D('',#374,#375,#376);
#378=CIRCLE('',#377,31.750000000000004);
#379=EDGE_CURVE('',#373,#373,#378,.T.);
#380=ORIENTED_EDGE('',*,*,#379,.F.);
#381=EDGE_LOOP('',(#380));
#382=FACE_OUTER_BOUND('',#381,.T.);
#383=ORIENTED_EDGE('',*,*,#343,.T.);
#384=CARTESIAN_POINT('',(0.0,0.0,0.0));
#385=DIRECTION('',(0.0,0.0,-1.0));
#386=DIRECTION('',(-1.0,0.0,0.0));
#387=AXIS2_PLACEMENT_3D('',#384,#385,#386);
#388=CIRCLE('',#387,31.750000000000004);
#389=EDGE_CURVE('',#241,#239,#388,.T.);
#390=ORIENTED_EDGE('',*,*,#389,.T.);
#391=EDGE_LOOP('',(#383,#390));
#392=FACE_BOUND('',#391,.T.);
#393=ADVANCED_FACE('',(#382,#392),#371,.T.);
#394=CARTESIAN_POINT('',(82.499999999999986,0.0,-82.500000000000014));
#395=DIRECTION('',(1.0,0.0,0.0));
#396=DIRECTION('',(0.0,0.0,-1.0));
#397=AXIS2_PLACEMENT_3D('',#394,#395,#396);
#398=PLANE('',#397);
#399=ORIENTED_EDGE('',*,*,#379,.T.);
#400=EDGE_LOOP('',(#399));
#401=FACE_OUTER_BOUND('',#400,.T.);
#402=ORIENTED_EDGE('',*,*,#207,.T.);
#403=EDGE_LOOP('',(#402));
#404=FACE_BOUND('',#403,.T.);
#405=ADVANCED_FACE('',(#401,#404),#398,.T.);
#406=CARTESIAN_POINT('',(0.0,0.0,0.0));
#407=DIRECTION('',(0.0,0.0,-1.0));
#408=DIRECTION('',(-1.0,0.0,0.0));
#409=AXIS2_PLACEMENT_3D('',#406,#407,#408);
#410=PLANE('',#409);
#411=ORIENTED_EDGE('',*,*,#389,.F.);
#412=ORIENTED_EDGE('',*,*,#350,.F.);
#413=EDGE_LOOP('',(#411,#412));
#414=FACE_OUTER_BOUND('',#413,.T.);
#415=ORIENTED_EDGE('',*,*,#217,.T.);
#416=ORIENTED_EDGE('',*,*,#179,.T.);
#417=EDGE_LOOP('',(#415,#416));
#418=FACE_BOUND('',#417,.T.);
#419=ADVANCED_FACE('',(#414,#418),#410,.F.);
#420=CLOSED_SHELL('',(#194,#221,#354,#366,#393,#405,#419));
#421=MANIFOLD_SOLID_BREP('',#420);
#422=COLOUR_RGB('Metall - Stahl',0.639216005802155,0.639216005802155,0.686275005340576);
#423=FILL_AREA_STYLE_COLOUR('Metall - Stahl',#422);
#424=FILL_AREA_STYLE('Metall - Stahl',(#423));
#425=SURFACE_STYLE_FILL_AREA(#424);
#426=SURFACE_SIDE_STYLE('Metall - Stahl',(#425));
#427=SURFACE_STYLE_USAGE(.BOTH.,#426);
#428=PRESENTATION_STYLE_ASSIGNMENT((#427));
#429=STYLED_ITEM('',(#428),#421);
#430=MECHANICAL_DESIGN_GEOMETRIC_PRESENTATION_REPRESENTATION('',(#429),#36);
#431=ADVANCED_BREP_SHAPE_REPRESENTATION('ABSR',(#421),#36);
#432=SHAPE_REPRESENTATION_RELATIONSHIP('SRR','None',#431,#41);
ENDSEC;
END-ISO-10303-21;
