ISO-10303-21;
HEADER;
/* Generated by software containing ST-Developer
 * from STEP Tools, Inc. (www.steptools.com) 
 */

FILE_DESCRIPTION(
/* description */ (''),
/* implementation_level */ '2;1');

FILE_NAME(
/* name */ 
'H:\\UHP\\!!! \X2\C11CBC84\X0\ \X2\D3F4B354\X0\ \X2\C815B9AC\X0\ \X2\C9C4D589\X0\ 
\X2\C911\X0\ !!!\\TEST\\8. \X2\AC1CC778BCC4\X0\ \X2\D3F4B354\X0\\\8. \X2\CD5CBCD1C8FC\X0\ 
\X2\C0ACC6D0\X0\\\\X2\C5C5BB34D611C870C804\X0\ 3D\\STEP\\SM4HMN.stp',
/* time_stamp */ '2025-03-10T14:21:36+09:00',
/* author */ ('user'),
/* organization */ (''),
/* preprocessor_version */ 'ST-DEVELOPER v20',
/* originating_system */ 'Autodesk Inventor 2022',
/* authorisation */ '');

FILE_SCHEMA (('AUTOMOTIVE_DESIGN { 1 0 10303 214 3 1 1 }'));
ENDSEC;

DATA;
#10=MECHANICAL_DESIGN_GEOMETRIC_PRESENTATION_REPRESENTATION('',(#13),#558);
#11=SHAPE_REPRESENTATION_RELATIONSHIP('SRR','None',#565,#12);
#12=ADVANCED_BREP_SHAPE_REPRESENTATION('',(#14),#557);
#13=STYLED_ITEM('',(#574),#14);
#14=MANIFOLD_SOLID_BREP('\X2\C194B9ACB4DC\X0\1',#302);
#15=(
BOUNDED_CURVE()
B_SPLINE_CURVE(2,(#462,#463,#464),.UNSPECIFIED.,.F.,.F.)
B_SPLINE_CURVE_WITH_KNOTS((3,3),(0.,0.920349895341764),.UNSPECIFIED.)
CURVE()
GEOMETRIC_REPRESENTATION_ITEM()
RATIONAL_B_SPLINE_CURVE((1.,1.15470053837925,1.))
REPRESENTATION_ITEM('')
);
#16=(
BOUNDED_CURVE()
B_SPLINE_CURVE(2,(#466,#467,#468),.UNSPECIFIED.,.F.,.F.)
B_SPLINE_CURVE_WITH_KNOTS((3,3),(0.,0.920349895341763),.UNSPECIFIED.)
CURVE()
GEOMETRIC_REPRESENTATION_ITEM()
RATIONAL_B_SPLINE_CURVE((1.,1.15470053837926,1.))
REPRESENTATION_ITEM('')
);
#17=(
BOUNDED_CURVE()
B_SPLINE_CURVE(2,(#473,#474,#475),.UNSPECIFIED.,.F.,.F.)
B_SPLINE_CURVE_WITH_KNOTS((3,3),(0.,0.920349895341763),.UNSPECIFIED.)
CURVE()
GEOMETRIC_REPRESENTATION_ITEM()
RATIONAL_B_SPLINE_CURVE((1.,1.15470053837926,1.))
REPRESENTATION_ITEM('')
);
#18=(
BOUNDED_CURVE()
B_SPLINE_CURVE(2,(#477,#478,#479),.UNSPECIFIED.,.F.,.F.)
B_SPLINE_CURVE_WITH_KNOTS((3,3),(0.,0.920349895341764),.UNSPECIFIED.)
CURVE()
GEOMETRIC_REPRESENTATION_ITEM()
RATIONAL_B_SPLINE_CURVE((1.,1.15470053837926,1.))
REPRESENTATION_ITEM('')
);
#19=(
BOUNDED_CURVE()
B_SPLINE_CURVE(2,(#481,#482,#483),.UNSPECIFIED.,.F.,.F.)
B_SPLINE_CURVE_WITH_KNOTS((3,3),(0.,0.920349895341763),.UNSPECIFIED.)
CURVE()
GEOMETRIC_REPRESENTATION_ITEM()
RATIONAL_B_SPLINE_CURVE((1.,1.15470053837926,1.))
REPRESENTATION_ITEM('')
);
#20=(
BOUNDED_CURVE()
B_SPLINE_CURVE(2,(#484,#485,#486),.UNSPECIFIED.,.F.,.F.)
B_SPLINE_CURVE_WITH_KNOTS((3,3),(0.,0.920349895341763),.UNSPECIFIED.)
CURVE()
GEOMETRIC_REPRESENTATION_ITEM()
RATIONAL_B_SPLINE_CURVE((1.,1.15470053837926,1.))
REPRESENTATION_ITEM('')
);
#21=(
BOUNDED_CURVE()
B_SPLINE_CURVE(2,(#503,#504,#505),.UNSPECIFIED.,.F.,.F.)
B_SPLINE_CURVE_WITH_KNOTS((3,3),(0.,0.920349895341761),.UNSPECIFIED.)
CURVE()
GEOMETRIC_REPRESENTATION_ITEM()
RATIONAL_B_SPLINE_CURVE((1.,1.15470053837927,1.))
REPRESENTATION_ITEM('')
);
#22=(
BOUNDED_CURVE()
B_SPLINE_CURVE(2,(#507,#508,#509),.UNSPECIFIED.,.F.,.F.)
B_SPLINE_CURVE_WITH_KNOTS((3,3),(0.,0.920349895341761),.UNSPECIFIED.)
CURVE()
GEOMETRIC_REPRESENTATION_ITEM()
RATIONAL_B_SPLINE_CURVE((1.,1.15470053837926,1.))
REPRESENTATION_ITEM('')
);
#23=(
BOUNDED_CURVE()
B_SPLINE_CURVE(2,(#511,#512,#513),.UNSPECIFIED.,.F.,.F.)
B_SPLINE_CURVE_WITH_KNOTS((3,3),(0.,0.920349895341761),.UNSPECIFIED.)
CURVE()
GEOMETRIC_REPRESENTATION_ITEM()
RATIONAL_B_SPLINE_CURVE((1.,1.15470053837924,1.))
REPRESENTATION_ITEM('')
);
#24=(
BOUNDED_CURVE()
B_SPLINE_CURVE(2,(#515,#516,#517),.UNSPECIFIED.,.F.,.F.)
B_SPLINE_CURVE_WITH_KNOTS((3,3),(0.,0.920349895341761),.UNSPECIFIED.)
CURVE()
GEOMETRIC_REPRESENTATION_ITEM()
RATIONAL_B_SPLINE_CURVE((1.,1.15470053837925,1.))
REPRESENTATION_ITEM('')
);
#25=(
BOUNDED_CURVE()
B_SPLINE_CURVE(2,(#519,#520,#521),.UNSPECIFIED.,.F.,.F.)
B_SPLINE_CURVE_WITH_KNOTS((3,3),(0.,0.920349895341761),.UNSPECIFIED.)
CURVE()
GEOMETRIC_REPRESENTATION_ITEM()
RATIONAL_B_SPLINE_CURVE((1.,1.15470053837926,1.))
REPRESENTATION_ITEM('')
);
#26=(
BOUNDED_CURVE()
B_SPLINE_CURVE(2,(#522,#523,#524),.UNSPECIFIED.,.F.,.F.)
B_SPLINE_CURVE_WITH_KNOTS((3,3),(0.,0.920349895341761),.UNSPECIFIED.)
CURVE()
GEOMETRIC_REPRESENTATION_ITEM()
RATIONAL_B_SPLINE_CURVE((1.,1.15470053837924,1.))
REPRESENTATION_ITEM('')
);
#27=CONICAL_SURFACE('',#334,8.43993464005752,1.30899693899575);
#28=CONICAL_SURFACE('',#336,6.625,0.785398163397448);
#29=CONICAL_SURFACE('',#341,8.43993464005752,1.30899693899575);
#30=CONICAL_SURFACE('',#343,6.625,0.785398163397448);
#31=CONICAL_SURFACE('',#346,5.975,0.785398163397448);
#32=FACE_BOUND('',#96,.T.);
#33=FACE_BOUND('',#106,.T.);
#34=FACE_BOUND('',#111,.T.);
#35=PLANE('',#332);
#36=PLANE('',#348);
#37=PLANE('',#349);
#38=PLANE('',#350);
#39=PLANE('',#351);
#40=PLANE('',#353);
#41=PLANE('',#354);
#42=PLANE('',#355);
#43=PLANE('',#356);
#44=LINE('',#455,#58);
#45=LINE('',#470,#59);
#46=LINE('',#492,#60);
#47=LINE('',#501,#61);
#48=LINE('',#529,#62);
#49=LINE('',#534,#63);
#50=LINE('',#536,#64);
#51=LINE('',#537,#65);
#52=LINE('',#539,#66);
#53=LINE('',#541,#67);
#54=LINE('',#546,#68);
#55=LINE('',#548,#69);
#56=LINE('',#552,#70);
#57=LINE('',#554,#71);
#58=VECTOR('',#375,4.95);
#59=VECTOR('',#382,8.43993464005752);
#60=VECTOR('',#389,6.625);
#61=VECTOR('',#400,8.43993464005752);
#62=VECTOR('',#405,6.625);
#63=VECTOR('',#412,5.975);
#64=VECTOR('',#415,10.);
#65=VECTOR('',#416,10.);
#66=VECTOR('',#419,10.);
#67=VECTOR('',#422,10.);
#68=VECTOR('',#429,10.);
#69=VECTOR('',#432,10.);
#70=VECTOR('',#439,6.15);
#71=VECTOR('',#442,7.1);
#72=CYLINDRICAL_SURFACE('',#330,4.95);
#73=CYLINDRICAL_SURFACE('',#357,6.15);
#74=CYLINDRICAL_SURFACE('',#358,7.1);
#75=FACE_OUTER_BOUND('',#93,.T.);
#76=FACE_OUTER_BOUND('',#94,.T.);
#77=FACE_OUTER_BOUND('',#95,.T.);
#78=FACE_OUTER_BOUND('',#97,.T.);
#79=FACE_OUTER_BOUND('',#98,.T.);
#80=FACE_OUTER_BOUND('',#99,.T.);
#81=FACE_OUTER_BOUND('',#100,.T.);
#82=FACE_OUTER_BOUND('',#101,.T.);
#83=FACE_OUTER_BOUND('',#102,.T.);
#84=FACE_OUTER_BOUND('',#103,.T.);
#85=FACE_OUTER_BOUND('',#104,.T.);
#86=FACE_OUTER_BOUND('',#105,.T.);
#87=FACE_OUTER_BOUND('',#107,.T.);
#88=FACE_OUTER_BOUND('',#108,.T.);
#89=FACE_OUTER_BOUND('',#109,.T.);
#90=FACE_OUTER_BOUND('',#110,.T.);
#91=FACE_OUTER_BOUND('',#112,.T.);
#92=FACE_OUTER_BOUND('',#113,.T.);
#93=EDGE_LOOP('',(#199,#200,#201,#202,#203));
#94=EDGE_LOOP('',(#204,#205,#206,#207,#208));
#95=EDGE_LOOP('',(#209));
#96=EDGE_LOOP('',(#210));
#97=EDGE_LOOP('',(#211,#212,#213,#214,#215,#216,#217,#218,#219));
#98=EDGE_LOOP('',(#220,#221,#222,#223,#224,#225));
#99=EDGE_LOOP('',(#226,#227,#228,#229,#230,#231,#232,#233,#234));
#100=EDGE_LOOP('',(#235,#236,#237,#238,#239));
#101=EDGE_LOOP('',(#240,#241,#242,#243));
#102=EDGE_LOOP('',(#244,#245,#246,#247));
#103=EDGE_LOOP('',(#248,#249,#250,#251));
#104=EDGE_LOOP('',(#252,#253,#254,#255));
#105=EDGE_LOOP('',(#256));
#106=EDGE_LOOP('',(#257));
#107=EDGE_LOOP('',(#258,#259,#260,#261));
#108=EDGE_LOOP('',(#262,#263,#264,#265));
#109=EDGE_LOOP('',(#266,#267,#268,#269));
#110=EDGE_LOOP('',(#270));
#111=EDGE_LOOP('',(#271));
#112=EDGE_LOOP('',(#272,#273,#274,#275,#276));
#113=EDGE_LOOP('',(#277,#278,#279,#280,#281,#282));
#114=CIRCLE('',#326,5.45);
#115=CIRCLE('',#327,0.5);
#116=CIRCLE('',#328,4.95);
#117=CIRCLE('',#329,4.95);
#118=CIRCLE('',#331,4.95);
#119=CIRCLE('',#333,6.15);
#120=CIRCLE('',#335,7.7);
#121=CIRCLE('',#337,6.15);
#122=CIRCLE('',#338,7.1);
#123=CIRCLE('',#339,7.1);
#124=CIRCLE('',#340,6.15);
#125=CIRCLE('',#342,7.7);
#126=CIRCLE('',#344,7.1);
#127=CIRCLE('',#345,7.1);
#128=CIRCLE('',#347,7.);
#129=CIRCLE('',#352,6.15);
#130=VERTEX_POINT('',#445);
#131=VERTEX_POINT('',#447);
#132=VERTEX_POINT('',#449);
#133=VERTEX_POINT('',#453);
#134=VERTEX_POINT('',#457);
#135=VERTEX_POINT('',#460);
#136=VERTEX_POINT('',#461);
#137=VERTEX_POINT('',#465);
#138=VERTEX_POINT('',#469);
#139=VERTEX_POINT('',#472);
#140=VERTEX_POINT('',#476);
#141=VERTEX_POINT('',#480);
#142=VERTEX_POINT('',#488);
#143=VERTEX_POINT('',#489);
#144=VERTEX_POINT('',#491);
#145=VERTEX_POINT('',#493);
#146=VERTEX_POINT('',#498);
#147=VERTEX_POINT('',#500);
#148=VERTEX_POINT('',#502);
#149=VERTEX_POINT('',#506);
#150=VERTEX_POINT('',#510);
#151=VERTEX_POINT('',#514);
#152=VERTEX_POINT('',#518);
#153=VERTEX_POINT('',#526);
#154=VERTEX_POINT('',#527);
#155=VERTEX_POINT('',#532);
#156=VERTEX_POINT('',#543);
#157=EDGE_CURVE('',#130,#130,#114,.T.);
#158=EDGE_CURVE('',#130,#131,#115,.T.);
#159=EDGE_CURVE('',#131,#132,#116,.T.);
#160=EDGE_CURVE('',#132,#131,#117,.T.);
#161=EDGE_CURVE('',#133,#133,#118,.T.);
#162=EDGE_CURVE('',#133,#132,#44,.T.);
#163=EDGE_CURVE('',#134,#134,#119,.T.);
#164=EDGE_CURVE('',#135,#136,#15,.T.);
#165=EDGE_CURVE('',#137,#135,#16,.T.);
#166=EDGE_CURVE('',#137,#138,#45,.T.);
#167=EDGE_CURVE('',#138,#138,#120,.T.);
#168=EDGE_CURVE('',#139,#137,#17,.T.);
#169=EDGE_CURVE('',#140,#139,#18,.T.);
#170=EDGE_CURVE('',#141,#140,#19,.T.);
#171=EDGE_CURVE('',#136,#141,#20,.T.);
#172=EDGE_CURVE('',#142,#143,#121,.T.);
#173=EDGE_CURVE('',#143,#144,#46,.T.);
#174=EDGE_CURVE('',#145,#144,#122,.T.);
#175=EDGE_CURVE('',#144,#145,#123,.T.);
#176=EDGE_CURVE('',#143,#142,#124,.T.);
#177=EDGE_CURVE('',#146,#146,#125,.T.);
#178=EDGE_CURVE('',#146,#147,#47,.T.);
#179=EDGE_CURVE('',#148,#147,#21,.T.);
#180=EDGE_CURVE('',#149,#148,#22,.T.);
#181=EDGE_CURVE('',#150,#149,#23,.T.);
#182=EDGE_CURVE('',#151,#150,#24,.T.);
#183=EDGE_CURVE('',#152,#151,#25,.T.);
#184=EDGE_CURVE('',#147,#152,#26,.T.);
#185=EDGE_CURVE('',#153,#154,#126,.T.);
#186=EDGE_CURVE('',#153,#134,#48,.T.);
#187=EDGE_CURVE('',#154,#153,#127,.T.);
#188=EDGE_CURVE('',#155,#155,#128,.T.);
#189=EDGE_CURVE('',#155,#133,#49,.T.);
#190=EDGE_CURVE('',#139,#152,#50,.T.);
#191=EDGE_CURVE('',#140,#151,#51,.T.);
#192=EDGE_CURVE('',#137,#147,#52,.T.);
#193=EDGE_CURVE('',#135,#148,#53,.T.);
#194=EDGE_CURVE('',#156,#156,#129,.T.);
#195=EDGE_CURVE('',#136,#149,#54,.T.);
#196=EDGE_CURVE('',#141,#150,#55,.T.);
#197=EDGE_CURVE('',#156,#142,#56,.T.);
#198=EDGE_CURVE('',#145,#154,#57,.T.);
#199=ORIENTED_EDGE('',*,*,#157,.T.);
#200=ORIENTED_EDGE('',*,*,#158,.T.);
#201=ORIENTED_EDGE('',*,*,#159,.T.);
#202=ORIENTED_EDGE('',*,*,#160,.T.);
#203=ORIENTED_EDGE('',*,*,#158,.F.);
#204=ORIENTED_EDGE('',*,*,#161,.F.);
#205=ORIENTED_EDGE('',*,*,#162,.T.);
#206=ORIENTED_EDGE('',*,*,#159,.F.);
#207=ORIENTED_EDGE('',*,*,#160,.F.);
#208=ORIENTED_EDGE('',*,*,#162,.F.);
#209=ORIENTED_EDGE('',*,*,#163,.T.);
#210=ORIENTED_EDGE('',*,*,#157,.F.);
#211=ORIENTED_EDGE('',*,*,#164,.F.);
#212=ORIENTED_EDGE('',*,*,#165,.F.);
#213=ORIENTED_EDGE('',*,*,#166,.T.);
#214=ORIENTED_EDGE('',*,*,#167,.F.);
#215=ORIENTED_EDGE('',*,*,#166,.F.);
#216=ORIENTED_EDGE('',*,*,#168,.F.);
#217=ORIENTED_EDGE('',*,*,#169,.F.);
#218=ORIENTED_EDGE('',*,*,#170,.F.);
#219=ORIENTED_EDGE('',*,*,#171,.F.);
#220=ORIENTED_EDGE('',*,*,#172,.T.);
#221=ORIENTED_EDGE('',*,*,#173,.T.);
#222=ORIENTED_EDGE('',*,*,#174,.F.);
#223=ORIENTED_EDGE('',*,*,#175,.F.);
#224=ORIENTED_EDGE('',*,*,#173,.F.);
#225=ORIENTED_EDGE('',*,*,#176,.T.);
#226=ORIENTED_EDGE('',*,*,#177,.F.);
#227=ORIENTED_EDGE('',*,*,#178,.T.);
#228=ORIENTED_EDGE('',*,*,#179,.F.);
#229=ORIENTED_EDGE('',*,*,#180,.F.);
#230=ORIENTED_EDGE('',*,*,#181,.F.);
#231=ORIENTED_EDGE('',*,*,#182,.F.);
#232=ORIENTED_EDGE('',*,*,#183,.F.);
#233=ORIENTED_EDGE('',*,*,#184,.F.);
#234=ORIENTED_EDGE('',*,*,#178,.F.);
#235=ORIENTED_EDGE('',*,*,#185,.F.);
#236=ORIENTED_EDGE('',*,*,#186,.T.);
#237=ORIENTED_EDGE('',*,*,#163,.F.);
#238=ORIENTED_EDGE('',*,*,#186,.F.);
#239=ORIENTED_EDGE('',*,*,#187,.F.);
#240=ORIENTED_EDGE('',*,*,#188,.F.);
#241=ORIENTED_EDGE('',*,*,#189,.T.);
#242=ORIENTED_EDGE('',*,*,#161,.T.);
#243=ORIENTED_EDGE('',*,*,#189,.F.);
#244=ORIENTED_EDGE('',*,*,#169,.T.);
#245=ORIENTED_EDGE('',*,*,#190,.T.);
#246=ORIENTED_EDGE('',*,*,#183,.T.);
#247=ORIENTED_EDGE('',*,*,#191,.F.);
#248=ORIENTED_EDGE('',*,*,#168,.T.);
#249=ORIENTED_EDGE('',*,*,#192,.T.);
#250=ORIENTED_EDGE('',*,*,#184,.T.);
#251=ORIENTED_EDGE('',*,*,#190,.F.);
#252=ORIENTED_EDGE('',*,*,#165,.T.);
#253=ORIENTED_EDGE('',*,*,#193,.T.);
#254=ORIENTED_EDGE('',*,*,#179,.T.);
#255=ORIENTED_EDGE('',*,*,#192,.F.);
#256=ORIENTED_EDGE('',*,*,#167,.T.);
#257=ORIENTED_EDGE('',*,*,#194,.T.);
#258=ORIENTED_EDGE('',*,*,#164,.T.);
#259=ORIENTED_EDGE('',*,*,#195,.T.);
#260=ORIENTED_EDGE('',*,*,#180,.T.);
#261=ORIENTED_EDGE('',*,*,#193,.F.);
#262=ORIENTED_EDGE('',*,*,#170,.T.);
#263=ORIENTED_EDGE('',*,*,#191,.T.);
#264=ORIENTED_EDGE('',*,*,#182,.T.);
#265=ORIENTED_EDGE('',*,*,#196,.F.);
#266=ORIENTED_EDGE('',*,*,#171,.T.);
#267=ORIENTED_EDGE('',*,*,#196,.T.);
#268=ORIENTED_EDGE('',*,*,#181,.T.);
#269=ORIENTED_EDGE('',*,*,#195,.F.);
#270=ORIENTED_EDGE('',*,*,#177,.T.);
#271=ORIENTED_EDGE('',*,*,#188,.T.);
#272=ORIENTED_EDGE('',*,*,#194,.F.);
#273=ORIENTED_EDGE('',*,*,#197,.T.);
#274=ORIENTED_EDGE('',*,*,#176,.F.);
#275=ORIENTED_EDGE('',*,*,#172,.F.);
#276=ORIENTED_EDGE('',*,*,#197,.F.);
#277=ORIENTED_EDGE('',*,*,#174,.T.);
#278=ORIENTED_EDGE('',*,*,#175,.T.);
#279=ORIENTED_EDGE('',*,*,#198,.T.);
#280=ORIENTED_EDGE('',*,*,#187,.T.);
#281=ORIENTED_EDGE('',*,*,#185,.T.);
#282=ORIENTED_EDGE('',*,*,#198,.F.);
#283=TOROIDAL_SURFACE('',#325,5.45,0.5);
#284=ADVANCED_FACE('',(#75),#283,.T.);
#285=ADVANCED_FACE('',(#76),#72,.F.);
#286=ADVANCED_FACE('',(#77,#32),#35,.F.);
#287=ADVANCED_FACE('',(#78),#27,.T.);
#288=ADVANCED_FACE('',(#79),#28,.T.);
#289=ADVANCED_FACE('',(#80),#29,.T.);
#290=ADVANCED_FACE('',(#81),#30,.T.);
#291=ADVANCED_FACE('',(#82),#31,.F.);
#292=ADVANCED_FACE('',(#83),#36,.T.);
#293=ADVANCED_FACE('',(#84),#37,.T.);
#294=ADVANCED_FACE('',(#85),#38,.T.);
#295=ADVANCED_FACE('',(#86,#33),#39,.F.);
#296=ADVANCED_FACE('',(#87),#40,.T.);
#297=ADVANCED_FACE('',(#88),#41,.T.);
#298=ADVANCED_FACE('',(#89),#42,.T.);
#299=ADVANCED_FACE('',(#90,#34),#43,.T.);
#300=ADVANCED_FACE('',(#91),#73,.T.);
#301=ADVANCED_FACE('',(#92),#74,.T.);
#302=CLOSED_SHELL('',(#284,#285,#286,#287,#288,#289,#290,#291,#292,#293,
#294,#295,#296,#297,#298,#299,#300,#301));
#303=DERIVED_UNIT_ELEMENT(#306,1.);
#304=DERIVED_UNIT_ELEMENT(#560,-3.);
#305=DIMENSIONAL_EXPONENTS(1.,0.,0.,0.,0.,0.,0.);
#306=(
CONVERSION_BASED_UNIT('gram',#308)
MASS_UNIT()
NAMED_UNIT(#305)
);
#307=(
MASS_UNIT()
NAMED_UNIT(*)
SI_UNIT(.KILO.,.GRAM.)
);
#308=MASS_MEASURE_WITH_UNIT(MASS_MEASURE(0.001),#307);
#309=DERIVED_UNIT((#303,#304));
#310=MEASURE_REPRESENTATION_ITEM('density measure',
POSITIVE_RATIO_MEASURE(1.),#309);
#311=PROPERTY_DEFINITION_REPRESENTATION(#316,#313);
#312=PROPERTY_DEFINITION_REPRESENTATION(#317,#314);
#313=REPRESENTATION('material name',(#315),#557);
#314=REPRESENTATION('density',(#310),#557);
#315=DESCRIPTIVE_REPRESENTATION_ITEM('\X2\C77CBC18\X0\','\X2\C77CBC18\X0\');
#316=PROPERTY_DEFINITION('material property','material name',#567);
#317=PROPERTY_DEFINITION('material property','density of part',#567);
#318=DATE_TIME_ROLE('creation_date');
#319=APPLIED_DATE_AND_TIME_ASSIGNMENT(#320,#318,(#567));
#320=DATE_AND_TIME(#321,#322);
#321=CALENDAR_DATE(2024,11,4);
#322=LOCAL_TIME(0,0,0.,#323);
#323=COORDINATED_UNIVERSAL_TIME_OFFSET(0,0,.BEHIND.);
#324=AXIS2_PLACEMENT_3D('placement',#443,#359,#360);
#325=AXIS2_PLACEMENT_3D('',#444,#361,#362);
#326=AXIS2_PLACEMENT_3D('',#446,#363,#364);
#327=AXIS2_PLACEMENT_3D('',#448,#365,#366);
#328=AXIS2_PLACEMENT_3D('',#450,#367,#368);
#329=AXIS2_PLACEMENT_3D('',#451,#369,#370);
#330=AXIS2_PLACEMENT_3D('',#452,#371,#372);
#331=AXIS2_PLACEMENT_3D('',#454,#373,#374);
#332=AXIS2_PLACEMENT_3D('',#456,#376,#377);
#333=AXIS2_PLACEMENT_3D('',#458,#378,#379);
#334=AXIS2_PLACEMENT_3D('',#459,#380,#381);
#335=AXIS2_PLACEMENT_3D('',#471,#383,#384);
#336=AXIS2_PLACEMENT_3D('',#487,#385,#386);
#337=AXIS2_PLACEMENT_3D('',#490,#387,#388);
#338=AXIS2_PLACEMENT_3D('',#494,#390,#391);
#339=AXIS2_PLACEMENT_3D('',#495,#392,#393);
#340=AXIS2_PLACEMENT_3D('',#496,#394,#395);
#341=AXIS2_PLACEMENT_3D('',#497,#396,#397);
#342=AXIS2_PLACEMENT_3D('',#499,#398,#399);
#343=AXIS2_PLACEMENT_3D('',#525,#401,#402);
#344=AXIS2_PLACEMENT_3D('',#528,#403,#404);
#345=AXIS2_PLACEMENT_3D('',#530,#406,#407);
#346=AXIS2_PLACEMENT_3D('',#531,#408,#409);
#347=AXIS2_PLACEMENT_3D('',#533,#410,#411);
#348=AXIS2_PLACEMENT_3D('',#535,#413,#414);
#349=AXIS2_PLACEMENT_3D('',#538,#417,#418);
#350=AXIS2_PLACEMENT_3D('',#540,#420,#421);
#351=AXIS2_PLACEMENT_3D('',#542,#423,#424);
#352=AXIS2_PLACEMENT_3D('',#544,#425,#426);
#353=AXIS2_PLACEMENT_3D('',#545,#427,#428);
#354=AXIS2_PLACEMENT_3D('',#547,#430,#431);
#355=AXIS2_PLACEMENT_3D('',#549,#433,#434);
#356=AXIS2_PLACEMENT_3D('',#550,#435,#436);
#357=AXIS2_PLACEMENT_3D('',#551,#437,#438);
#358=AXIS2_PLACEMENT_3D('',#553,#440,#441);
#359=DIRECTION('axis',(0.,0.,1.));
#360=DIRECTION('refdir',(1.,0.,0.));
#361=DIRECTION('center_axis',(0.,0.,1.));
#362=DIRECTION('ref_axis',(1.,0.,0.));
#363=DIRECTION('center_axis',(0.,0.,-1.));
#364=DIRECTION('ref_axis',(-1.22464679914735E-16,-1.,0.));
#365=DIRECTION('center_axis',(1.22464679914735E-16,-1.,0.));
#366=DIRECTION('ref_axis',(-1.,-1.22464679914735E-16,0.));
#367=DIRECTION('center_axis',(0.,0.,1.));
#368=DIRECTION('ref_axis',(-1.22464679914735E-16,-1.,0.));
#369=DIRECTION('center_axis',(0.,0.,1.));
#370=DIRECTION('ref_axis',(-1.22464679914735E-16,-1.,0.));
#371=DIRECTION('center_axis',(0.,0.,-1.));
#372=DIRECTION('ref_axis',(0.,1.,0.));
#373=DIRECTION('center_axis',(0.,0.,-1.));
#374=DIRECTION('ref_axis',(1.,0.,0.));
#375=DIRECTION('',(0.,0.,-1.));
#376=DIRECTION('center_axis',(0.,0.,1.));
#377=DIRECTION('ref_axis',(1.,0.,0.));
#378=DIRECTION('center_axis',(0.,0.,-1.));
#379=DIRECTION('ref_axis',(0.,1.,0.));
#380=DIRECTION('center_axis',(0.,0.,1.));
#381=DIRECTION('ref_axis',(0.,1.,0.));
#382=DIRECTION('',(1.18291797137867E-16,0.965925826289068,-0.258819045102521));
#383=DIRECTION('center_axis',(0.,0.,-1.));
#384=DIRECTION('ref_axis',(0.,1.,0.));
#385=DIRECTION('center_axis',(0.,0.,-1.));
#386=DIRECTION('ref_axis',(0.,1.,0.));
#387=DIRECTION('center_axis',(0.,0.,-1.));
#388=DIRECTION('ref_axis',(1.,0.,0.));
#389=DIRECTION('',(-8.65956056235493E-17,-0.707106781186547,-0.707106781186547));
#390=DIRECTION('center_axis',(0.,0.,-1.));
#391=DIRECTION('ref_axis',(1.,0.,0.));
#392=DIRECTION('center_axis',(0.,0.,-1.));
#393=DIRECTION('ref_axis',(1.,0.,0.));
#394=DIRECTION('center_axis',(0.,0.,-1.));
#395=DIRECTION('ref_axis',(1.,0.,0.));
#396=DIRECTION('center_axis',(0.,0.,-1.));
#397=DIRECTION('ref_axis',(0.,1.,0.));
#398=DIRECTION('center_axis',(0.,0.,1.));
#399=DIRECTION('ref_axis',(0.,1.,0.));
#400=DIRECTION('',(-1.18291797137867E-16,-0.965925826289069,-0.25881904510252));
#401=DIRECTION('center_axis',(0.,0.,1.));
#402=DIRECTION('ref_axis',(0.,1.,0.));
#403=DIRECTION('center_axis',(0.,0.,1.));
#404=DIRECTION('ref_axis',(1.,0.,0.));
#405=DIRECTION('',(8.65956056235493E-17,0.707106781186547,-0.707106781186547));
#406=DIRECTION('center_axis',(0.,0.,1.));
#407=DIRECTION('ref_axis',(1.,0.,0.));
#408=DIRECTION('center_axis',(0.,0.,1.));
#409=DIRECTION('ref_axis',(0.,1.,0.));
#410=DIRECTION('center_axis',(0.,0.,-1.));
#411=DIRECTION('ref_axis',(0.,1.,0.));
#412=DIRECTION('',(8.65956056235493E-17,0.707106781186548,-0.707106781186548));
#413=DIRECTION('center_axis',(-1.,-1.20941049458086E-16,0.));
#414=DIRECTION('ref_axis',(1.20941049458086E-16,-1.,0.));
#415=DIRECTION('',(0.,0.,1.));
#416=DIRECTION('',(0.,0.,1.));
#417=DIRECTION('center_axis',(-0.5,-0.866025403784439,0.));
#418=DIRECTION('ref_axis',(0.866025403784439,-0.5,0.));
#419=DIRECTION('',(0.,0.,1.));
#420=DIRECTION('center_axis',(0.5,-0.866025403784439,0.));
#421=DIRECTION('ref_axis',(0.866025403784439,0.5,0.));
#422=DIRECTION('',(0.,0.,1.));
#423=DIRECTION('center_axis',(0.,0.,1.));
#424=DIRECTION('ref_axis',(1.,0.,0.));
#425=DIRECTION('center_axis',(0.,0.,1.));
#426=DIRECTION('ref_axis',(1.,0.,0.));
#427=DIRECTION('center_axis',(1.,2.41882098916171E-16,0.));
#428=DIRECTION('ref_axis',(-2.41882098916171E-16,1.,0.));
#429=DIRECTION('',(0.,0.,1.));
#430=DIRECTION('center_axis',(-0.5,0.866025403784439,0.));
#431=DIRECTION('ref_axis',(-0.866025403784439,-0.5,0.));
#432=DIRECTION('',(0.,0.,1.));
#433=DIRECTION('center_axis',(0.5,0.866025403784439,0.));
#434=DIRECTION('ref_axis',(-0.866025403784439,0.5,0.));
#435=DIRECTION('center_axis',(0.,0.,1.));
#436=DIRECTION('ref_axis',(1.,0.,0.));
#437=DIRECTION('center_axis',(0.,0.,1.));
#438=DIRECTION('ref_axis',(1.,0.,0.));
#439=DIRECTION('',(0.,0.,-1.));
#440=DIRECTION('center_axis',(0.,0.,1.));
#441=DIRECTION('ref_axis',(1.,0.,0.));
#442=DIRECTION('',(0.,0.,-1.));
#443=CARTESIAN_POINT('',(0.,0.,0.));
#444=CARTESIAN_POINT('Origin',(0.,0.,0.5));
#445=CARTESIAN_POINT('',(-5.45,-6.67432505535308E-16,0.));
#446=CARTESIAN_POINT('Origin',(0.,0.,0.));
#447=CARTESIAN_POINT('',(-4.95,-6.0620016557794E-16,0.5));
#448=CARTESIAN_POINT('Origin',(-5.45,-6.67432505535308E-16,0.5));
#449=CARTESIAN_POINT('',(-6.0620016557794E-16,-4.95,0.5));
#450=CARTESIAN_POINT('Origin',(0.,0.,0.5));
#451=CARTESIAN_POINT('Origin',(0.,0.,0.5));
#452=CARTESIAN_POINT('Origin',(0.,0.,7.975));
#453=CARTESIAN_POINT('',(-6.0620016557794E-16,-4.95,15.95));
#454=CARTESIAN_POINT('Origin',(0.,0.,15.95));
#455=CARTESIAN_POINT('',(-6.0620016557794E-16,-4.95,7.975));
#456=CARTESIAN_POINT('Origin',(0.,0.,0.));
#457=CARTESIAN_POINT('',(-7.53157781475622E-16,-6.15,2.77555756156289E-16));
#458=CARTESIAN_POINT('Origin',(0.,0.,0.));
#459=CARTESIAN_POINT('Origin',(0.,0.,11.1982648892552));
#460=CARTESIAN_POINT('',(7.95,-4.58993464005752,11.3965297785105));
#461=CARTESIAN_POINT('',(7.95,4.58993464005753,11.3965297785105));
#462=CARTESIAN_POINT('Ctrl Pts',(7.95,-4.58993464005752,11.3965297785105));
#463=CARTESIAN_POINT('Ctrl Pts',(7.95,1.94289029309402E-15,10.7815951384529));
#464=CARTESIAN_POINT('Ctrl Pts',(7.95,4.58993464005752,11.3965297785105));
#465=CARTESIAN_POINT('',(1.11022302462516E-15,-9.17986928011505,11.3965297785105));
#466=CARTESIAN_POINT('Ctrl Pts',(8.45289906941079E-15,-9.17986928011505,
11.3965297785105));
#467=CARTESIAN_POINT('Ctrl Pts',(3.975,-6.88490196008629,10.7815951384529));
#468=CARTESIAN_POINT('Ctrl Pts',(7.94999999999999,-4.58993464005753,11.3965297785105));
#469=CARTESIAN_POINT('',(-9.42978035343462E-16,-7.7,11.));
#470=CARTESIAN_POINT('',(-1.03359389419593E-15,-8.43993464005752,11.1982648892552));
#471=CARTESIAN_POINT('Origin',(0.,0.,11.));
#472=CARTESIAN_POINT('',(-7.95,-4.58993464005753,11.3965297785105));
#473=CARTESIAN_POINT('Ctrl Pts',(-7.94999999999999,-4.58993464005753,11.3965297785105));
#474=CARTESIAN_POINT('Ctrl Pts',(-3.975,-6.88490196008629,10.7815951384529));
#475=CARTESIAN_POINT('Ctrl Pts',(-7.24534205949497E-15,-9.17986928011505,
11.3965297785105));
#476=CARTESIAN_POINT('',(-7.95,4.58993464005753,11.3965297785105));
#477=CARTESIAN_POINT('Ctrl Pts',(-7.95,4.58993464005752,11.3965297785105));
#478=CARTESIAN_POINT('Ctrl Pts',(-7.95,-1.11022302462516E-15,10.7815951384529));
#479=CARTESIAN_POINT('Ctrl Pts',(-7.95,-4.58993464005752,11.3965297785105));
#480=CARTESIAN_POINT('',(0.,9.17986928011505,11.3965297785105));
#481=CARTESIAN_POINT('Ctrl Pts',(-1.08680130892425E-14,9.17986928011505,
11.3965297785105));
#482=CARTESIAN_POINT('Ctrl Pts',(-3.975,6.88490196008629,10.7815951384529));
#483=CARTESIAN_POINT('Ctrl Pts',(-7.94999999999999,4.58993464005753,11.3965297785105));
#484=CARTESIAN_POINT('Ctrl Pts',(7.94999999999999,4.58993464005753,11.3965297785105));
#485=CARTESIAN_POINT('Ctrl Pts',(3.975,6.88490196008629,10.7815951384529));
#486=CARTESIAN_POINT('Ctrl Pts',(6.03778504957914E-15,9.17986928011505,
11.3965297785105));
#487=CARTESIAN_POINT('Origin',(0.,0.,7.525));
#488=CARTESIAN_POINT('',(-6.15,-7.53157781475622E-16,8.));
#489=CARTESIAN_POINT('',(-7.53157781475622E-16,-6.15,8.));
#490=CARTESIAN_POINT('Origin',(0.,0.,8.));
#491=CARTESIAN_POINT('',(-8.69499227394621E-16,-7.1,7.05));
#492=CARTESIAN_POINT('',(-8.11328504435122E-16,-6.625,7.525));
#493=CARTESIAN_POINT('',(-7.1,-8.69499227394621E-16,7.05));
#494=CARTESIAN_POINT('Origin',(0.,0.,7.05));
#495=CARTESIAN_POINT('Origin',(0.,0.,7.05));
#496=CARTESIAN_POINT('Origin',(0.,0.,8.));
#497=CARTESIAN_POINT('Origin',(0.,0.,17.8017351107448));
#498=CARTESIAN_POINT('',(-9.42978035343462E-16,-7.7,18.));
#499=CARTESIAN_POINT('Origin',(0.,0.,18.));
#500=CARTESIAN_POINT('',(1.11022302462516E-15,-9.17986928011505,17.6034702214896));
#501=CARTESIAN_POINT('',(-1.03359389419593E-15,-8.43993464005752,17.8017351107448));
#502=CARTESIAN_POINT('',(7.95,-4.58993464005752,17.6034702214896));
#503=CARTESIAN_POINT('Ctrl Pts',(7.94999999999998,-4.58993464005754,17.6034702214896));
#504=CARTESIAN_POINT('Ctrl Pts',(3.97499999999999,-6.8849019600863,18.2184048615471));
#505=CARTESIAN_POINT('Ctrl Pts',(1.87171336536953E-14,-9.17986928011504,
17.6034702214896));
#506=CARTESIAN_POINT('',(7.95,4.58993464005753,17.6034702214896));
#507=CARTESIAN_POINT('Ctrl Pts',(7.95,4.58993464005751,17.6034702214896));
#508=CARTESIAN_POINT('Ctrl Pts',(7.95,1.94289029309402E-15,18.2184048615471));
#509=CARTESIAN_POINT('Ctrl Pts',(7.95,-4.5899346400575,17.6034702214896));
#510=CARTESIAN_POINT('',(0.,9.17986928011505,17.6034702214896));
#511=CARTESIAN_POINT('Ctrl Pts',(1.50944626239478E-14,9.17986928011504,
17.6034702214896));
#512=CARTESIAN_POINT('Ctrl Pts',(3.975,6.88490196008629,18.2184048615471));
#513=CARTESIAN_POINT('Ctrl Pts',(7.94999999999998,4.58993464005754,17.6034702214896));
#514=CARTESIAN_POINT('',(-7.95,4.58993464005753,17.6034702214896));
#515=CARTESIAN_POINT('Ctrl Pts',(-7.94999999999998,4.58993464005754,17.6034702214896));
#516=CARTESIAN_POINT('Ctrl Pts',(-3.975,6.88490196008629,18.2184048615471));
#517=CARTESIAN_POINT('Ctrl Pts',(-2.05284691685691E-14,9.17986928011504,
17.6034702214896));
#518=CARTESIAN_POINT('',(-7.95,-4.58993464005753,17.6034702214896));
#519=CARTESIAN_POINT('Ctrl Pts',(-7.95,-4.58993464005751,17.6034702214896));
#520=CARTESIAN_POINT('Ctrl Pts',(-7.95,-2.77555756156289E-16,18.2184048615471));
#521=CARTESIAN_POINT('Ctrl Pts',(-7.95,4.58993464005751,17.6034702214896));
#522=CARTESIAN_POINT('Ctrl Pts',(-1.50944626239478E-14,-9.17986928011504,
17.6034702214896));
#523=CARTESIAN_POINT('Ctrl Pts',(-3.975,-6.88490196008629,18.2184048615471));
#524=CARTESIAN_POINT('Ctrl Pts',(-7.94999999999998,-4.58993464005754,17.6034702214896));
#525=CARTESIAN_POINT('Origin',(0.,0.,0.474999999999999));
#526=CARTESIAN_POINT('',(-8.69499227394621E-16,-7.1,0.949999999999999));
#527=CARTESIAN_POINT('',(-7.1,-8.69499227394621E-16,0.949999999999998));
#528=CARTESIAN_POINT('Origin',(0.,0.,0.949999999999998));
#529=CARTESIAN_POINT('',(-8.11328504435122E-16,-6.625,0.474999999999999));
#530=CARTESIAN_POINT('Origin',(0.,0.,0.949999999999998));
#531=CARTESIAN_POINT('Origin',(0.,0.,16.975));
#532=CARTESIAN_POINT('',(-8.57252759403147E-16,-7.,18.));
#533=CARTESIAN_POINT('Origin',(0.,0.,18.));
#534=CARTESIAN_POINT('',(-7.31726462490544E-16,-5.975,16.975));
#535=CARTESIAN_POINT('Origin',(-7.95,4.58993464005753,11.));
#536=CARTESIAN_POINT('',(-7.95,-4.58993464005753,11.));
#537=CARTESIAN_POINT('',(-7.95,4.58993464005753,11.));
#538=CARTESIAN_POINT('Origin',(-7.95,-4.58993464005753,11.));
#539=CARTESIAN_POINT('',(5.62104876524201E-16,-9.17986928011505,11.));
#540=CARTESIAN_POINT('Origin',(6.99134413549439E-16,-9.17986928011505,11.));
#541=CARTESIAN_POINT('',(7.95,-4.58993464005752,11.));
#542=CARTESIAN_POINT('Origin',(5.55111512312578E-16,0.,11.));
#543=CARTESIAN_POINT('',(-6.15,-7.53157781475622E-16,11.));
#544=CARTESIAN_POINT('Origin',(0.,0.,11.));
#545=CARTESIAN_POINT('Origin',(7.95,-4.58993464005752,11.));
#546=CARTESIAN_POINT('',(7.95,4.58993464005753,11.));
#547=CARTESIAN_POINT('Origin',(-1.81984748449203E-15,9.17986928011505,11.));
#548=CARTESIAN_POINT('',(-1.6863146295726E-15,9.17986928011505,11.));
#549=CARTESIAN_POINT('Origin',(7.95,4.58993464005753,11.));
#550=CARTESIAN_POINT('Origin',(0.,0.,18.));
#551=CARTESIAN_POINT('Origin',(0.,0.,8.));
#552=CARTESIAN_POINT('',(-6.15,-7.53157781475622E-16,8.));
#553=CARTESIAN_POINT('Origin',(0.,0.,0.));
#554=CARTESIAN_POINT('',(-7.1,-8.69499227394621E-16,0.));
#555=UNCERTAINTY_MEASURE_WITH_UNIT(LENGTH_MEASURE(0.01),#559,
'DISTANCE_ACCURACY_VALUE',
'Maximum model space distance between geometric entities at asserted c
onnectivities');
#556=UNCERTAINTY_MEASURE_WITH_UNIT(LENGTH_MEASURE(0.01),#559,
'DISTANCE_ACCURACY_VALUE',
'Maximum model space distance between geometric entities at asserted c
onnectivities');
#557=(
GEOMETRIC_REPRESENTATION_CONTEXT(3)
GLOBAL_UNCERTAINTY_ASSIGNED_CONTEXT((#555))
GLOBAL_UNIT_ASSIGNED_CONTEXT((#559,#561,#562))
REPRESENTATION_CONTEXT('','3D')
);
#558=(
GEOMETRIC_REPRESENTATION_CONTEXT(3)
GLOBAL_UNCERTAINTY_ASSIGNED_CONTEXT((#556))
GLOBAL_UNIT_ASSIGNED_CONTEXT((#559,#561,#562))
REPRESENTATION_CONTEXT('','3D')
);
#559=(
LENGTH_UNIT()
NAMED_UNIT(*)
SI_UNIT(.MILLI.,.METRE.)
);
#560=(
LENGTH_UNIT()
NAMED_UNIT(*)
SI_UNIT(.CENTI.,.METRE.)
);
#561=(
NAMED_UNIT(*)
PLANE_ANGLE_UNIT()
SI_UNIT($,.RADIAN.)
);
#562=(
NAMED_UNIT(*)
SI_UNIT($,.STERADIAN.)
SOLID_ANGLE_UNIT()
);
#563=SHAPE_DEFINITION_REPRESENTATION(#564,#565);
#564=PRODUCT_DEFINITION_SHAPE('',$,#567);
#565=SHAPE_REPRESENTATION('',(#324),#557);
#566=PRODUCT_DEFINITION_CONTEXT('part definition',#571,'design');
#567=PRODUCT_DEFINITION('SM4HMN','SM4HMN',#568,#566);
#568=PRODUCT_DEFINITION_FORMATION('',$,#573);
#569=PRODUCT_RELATED_PRODUCT_CATEGORY('SM4HMN','SM4HMN',(#573));
#570=APPLICATION_PROTOCOL_DEFINITION('international standard',
'automotive_design',2009,#571);
#571=APPLICATION_CONTEXT(
'Core Data for Automotive Mechanical Design Process');
#572=PRODUCT_CONTEXT('part definition',#571,'mechanical');
#573=PRODUCT('SM4HMN','SM4HMN',$,(#572));
#574=PRESENTATION_STYLE_ASSIGNMENT((#575));
#575=SURFACE_STYLE_USAGE(.BOTH.,#578);
#576=SURFACE_STYLE_RENDERING_WITH_PROPERTIES($,#582,(#577));
#577=SURFACE_STYLE_TRANSPARENT(0.);
#578=SURFACE_SIDE_STYLE('',(#579,#576));
#579=SURFACE_STYLE_FILL_AREA(#580);
#580=FILL_AREA_STYLE('',(#581));
#581=FILL_AREA_STYLE_COLOUR('',#582);
#582=COLOUR_RGB('',0.745098039215686,0.737254901960784,0.729411764705882);
ENDSEC;
END-ISO-10303-21;
