ISO-10303-21;
HEADER;
/* Generated by software containing ST-Developer
 * from STEP Tools, Inc. (www.steptools.com) 
 */
/* OPTION: using custom renumber hook */

FILE_DESCRIPTION(
/* description */ ('STEP AP203'),
/* implementation_level */ '2;1');

FILE_NAME(
/* name */ '9615227534',
/* time_stamp */ '2024-03-07T10:15:48+01:00',
/* author */ ('License CC BY-ND 4.0'),
/* organization */ ('CADENAS'),
/* preprocessor_version */ 'ST-DEVELOPER v19.3',
/* originating_system */ 'PARTsolutions',
/* authorisation */ '  ');

FILE_SCHEMA (('CONFIG_CONTROL_DESIGN'));
ENDSEC;

DATA;
#10=PROPERTY_DEFINITION_REPRESENTATION(#14,#12);
#11=PROPERTY_DEFINITION_REPRESENTATION(#15,#13);
#12=REPRESENTATION('',(#16),#211);
#13=REPRESENTATION('',(#17),#211);
#14=PROPERTY_DEFINITION('pmi validation property','',#216);
#15=PROPERTY_DEFINITION('pmi validation property','',#216);
#16=VALUE_REPRESENTATION_ITEM('number of annotations',COUNT_MEASURE(0.));
#17=VALUE_REPRESENTATION_ITEM('number of views',COUNT_MEASURE(0.));
#18=SHAPE_REPRESENTATION_RELATIONSHIP('','',#127,#19);
#19=ADVANCED_BREP_SHAPE_REPRESENTATION('',(#125),#211);
#20=PLANE('',#139);
#21=PLANE('',#140);
#22=PLANE('',#143);
#23=ELLIPSE('',#131,141.42135623731,100.);
#24=ELLIPSE('',#132,141.42135623731,100.);
#25=ELLIPSE('',#136,144.249783362056,102.);
#26=ELLIPSE('',#137,144.249783362056,102.);
#27=ORIENTED_EDGE('',*,*,#47,.T.);
#28=ORIENTED_EDGE('',*,*,#48,.T.);
#29=ORIENTED_EDGE('',*,*,#49,.T.);
#30=ORIENTED_EDGE('',*,*,#50,.F.);
#31=ORIENTED_EDGE('',*,*,#51,.F.);
#32=ORIENTED_EDGE('',*,*,#52,.F.);
#33=ORIENTED_EDGE('',*,*,#53,.F.);
#34=ORIENTED_EDGE('',*,*,#54,.T.);
#35=ORIENTED_EDGE('',*,*,#54,.F.);
#36=ORIENTED_EDGE('',*,*,#50,.T.);
#37=ORIENTED_EDGE('',*,*,#47,.F.);
#38=ORIENTED_EDGE('',*,*,#51,.T.);
#39=ORIENTED_EDGE('',*,*,#52,.T.);
#40=ORIENTED_EDGE('',*,*,#53,.T.);
#41=ORIENTED_EDGE('',*,*,#55,.T.);
#42=ORIENTED_EDGE('',*,*,#55,.F.);
#43=ORIENTED_EDGE('',*,*,#56,.T.);
#44=ORIENTED_EDGE('',*,*,#48,.F.);
#45=ORIENTED_EDGE('',*,*,#49,.F.);
#46=ORIENTED_EDGE('',*,*,#56,.F.);
#47=EDGE_CURVE('',#57,#57,#67,.T.);
#48=EDGE_CURVE('',#58,#59,#23,.F.);
#49=EDGE_CURVE('',#59,#58,#24,.T.);
#50=EDGE_CURVE('',#60,#60,#68,.T.);
#51=EDGE_CURVE('',#61,#61,#69,.T.);
#52=EDGE_CURVE('',#62,#63,#25,.T.);
#53=EDGE_CURVE('',#63,#62,#26,.F.);
#54=EDGE_CURVE('',#64,#64,#70,.T.);
#55=EDGE_CURVE('',#65,#65,#71,.T.);
#56=EDGE_CURVE('',#66,#66,#72,.T.);
#57=VERTEX_POINT('',#185);
#58=VERTEX_POINT('',#187);
#59=VERTEX_POINT('',#188);
#60=VERTEX_POINT('',#191);
#61=VERTEX_POINT('',#194);
#62=VERTEX_POINT('',#196);
#63=VERTEX_POINT('',#197);
#64=VERTEX_POINT('',#200);
#65=VERTEX_POINT('',#205);
#66=VERTEX_POINT('',#208);
#67=CIRCLE('',#130,100.);
#68=CIRCLE('',#133,100.);
#69=CIRCLE('',#135,102.);
#70=CIRCLE('',#138,102.);
#71=CIRCLE('',#142,102.);
#72=CIRCLE('',#144,100.);
#73=EDGE_LOOP('',(#27));
#74=EDGE_LOOP('',(#28,#29));
#75=EDGE_LOOP('',(#30));
#76=EDGE_LOOP('',(#31));
#77=EDGE_LOOP('',(#32,#33));
#78=EDGE_LOOP('',(#34));
#79=EDGE_LOOP('',(#35));
#80=EDGE_LOOP('',(#36));
#81=EDGE_LOOP('',(#37));
#82=EDGE_LOOP('',(#38));
#83=EDGE_LOOP('',(#39,#40));
#84=EDGE_LOOP('',(#41));
#85=EDGE_LOOP('',(#42));
#86=EDGE_LOOP('',(#43));
#87=EDGE_LOOP('',(#44,#45));
#88=EDGE_LOOP('',(#46));
#89=FACE_BOUND('',#73,.T.);
#90=FACE_BOUND('',#74,.T.);
#91=FACE_BOUND('',#75,.T.);
#92=FACE_BOUND('',#76,.T.);
#93=FACE_BOUND('',#77,.T.);
#94=FACE_BOUND('',#78,.T.);
#95=FACE_BOUND('',#79,.T.);
#96=FACE_BOUND('',#80,.T.);
#97=FACE_BOUND('',#81,.T.);
#98=FACE_BOUND('',#82,.T.);
#99=FACE_BOUND('',#83,.T.);
#100=FACE_BOUND('',#84,.T.);
#101=FACE_BOUND('',#85,.T.);
#102=FACE_BOUND('',#86,.T.);
#103=FACE_BOUND('',#87,.T.);
#104=FACE_BOUND('',#88,.T.);
#105=CYLINDRICAL_SURFACE('',#129,100.);
#106=CYLINDRICAL_SURFACE('',#134,102.);
#107=CYLINDRICAL_SURFACE('',#141,102.);
#108=CYLINDRICAL_SURFACE('',#145,100.);
#109=ADVANCED_FACE('',(#89,#90,#91),#105,.F.);
#110=ADVANCED_FACE('',(#92,#93,#94),#106,.T.);
#111=ADVANCED_FACE('',(#95,#96),#20,.F.);
#112=ADVANCED_FACE('',(#97,#98),#21,.F.);
#113=ADVANCED_FACE('',(#99,#100),#107,.T.);
#114=ADVANCED_FACE('',(#101,#102),#22,.F.);
#115=ADVANCED_FACE('',(#103,#104),#108,.F.);
#116=CLOSED_SHELL('',(#109,#110,#111,#112,#113,#114,#115));
#117=STYLED_ITEM('',(#118),#125);
#118=PRESENTATION_STYLE_ASSIGNMENT((#119));
#119=SURFACE_STYLE_USAGE(.BOTH.,#120);
#120=SURFACE_SIDE_STYLE('',(#121));
#121=SURFACE_STYLE_FILL_AREA(#122);
#122=FILL_AREA_STYLE('',(#123));
#123=FILL_AREA_STYLE_COLOUR('',#124);
#124=COLOUR_RGB('',0.689999997615814,0.689999997615814,0.689999997615814);
#125=MANIFOLD_SOLID_BREP('9615227534',#116);
#126=SHAPE_DEFINITION_REPRESENTATION(#216,#127);
#127=SHAPE_REPRESENTATION('9615227534',(#128),#211);
#128=AXIS2_PLACEMENT_3D('',#182,#146,#147);
#129=AXIS2_PLACEMENT_3D('',#183,#148,#149);
#130=AXIS2_PLACEMENT_3D('',#184,#150,#151);
#131=AXIS2_PLACEMENT_3D('',#186,#152,#153);
#132=AXIS2_PLACEMENT_3D('',#189,#154,#155);
#133=AXIS2_PLACEMENT_3D('',#190,#156,#157);
#134=AXIS2_PLACEMENT_3D('',#192,#158,#159);
#135=AXIS2_PLACEMENT_3D('',#193,#160,#161);
#136=AXIS2_PLACEMENT_3D('',#195,#162,#163);
#137=AXIS2_PLACEMENT_3D('',#198,#164,#165);
#138=AXIS2_PLACEMENT_3D('',#199,#166,#167);
#139=AXIS2_PLACEMENT_3D('',#201,#168,#169);
#140=AXIS2_PLACEMENT_3D('',#202,#170,#171);
#141=AXIS2_PLACEMENT_3D('',#203,#172,#173);
#142=AXIS2_PLACEMENT_3D('',#204,#174,#175);
#143=AXIS2_PLACEMENT_3D('',#206,#176,#177);
#144=AXIS2_PLACEMENT_3D('',#207,#178,#179);
#145=AXIS2_PLACEMENT_3D('',#209,#180,#181);
#146=DIRECTION('',(0.,0.,1.));
#147=DIRECTION('',(1.,0.,0.));
#148=DIRECTION('',(1.,0.,0.));
#149=DIRECTION('',(0.,0.,-1.));
#150=DIRECTION('',(1.,0.,0.));
#151=DIRECTION('',(0.,0.,-1.));
#152=DIRECTION('',(0.707106781186547,-0.707106781186547,0.));
#153=DIRECTION('',(0.707106781186547,0.707106781186547,0.));
#154=DIRECTION('',(0.707106781186547,0.707106781186547,0.));
#155=DIRECTION('',(0.707106781186547,-0.707106781186547,0.));
#156=DIRECTION('',(1.,0.,0.));
#157=DIRECTION('',(0.,0.,-1.));
#158=DIRECTION('',(1.,0.,0.));
#159=DIRECTION('',(0.,0.,-1.));
#160=DIRECTION('',(1.,0.,0.));
#161=DIRECTION('',(0.,0.,-1.));
#162=DIRECTION('',(0.707106781186547,0.707106781186547,0.));
#163=DIRECTION('',(0.707106781186547,-0.707106781186547,0.));
#164=DIRECTION('',(0.707106781186547,-0.707106781186547,0.));
#165=DIRECTION('',(0.707106781186547,0.707106781186547,0.));
#166=DIRECTION('',(1.,0.,0.));
#167=DIRECTION('',(0.,0.,-1.));
#168=DIRECTION('',(1.,0.,0.));
#169=DIRECTION('',(0.,0.,-1.));
#170=DIRECTION('',(-1.,0.,0.));
#171=DIRECTION('',(0.,0.,1.));
#172=DIRECTION('',(0.,-1.,0.));
#173=DIRECTION('',(0.,0.,-1.));
#174=DIRECTION('',(0.,-1.,0.));
#175=DIRECTION('',(0.,0.,-1.));
#176=DIRECTION('',(0.,-1.,0.));
#177=DIRECTION('',(0.,0.,-1.));
#178=DIRECTION('',(0.,-1.,0.));
#179=DIRECTION('',(0.,0.,-1.));
#180=DIRECTION('',(0.,-1.,0.));
#181=DIRECTION('',(0.,0.,-1.));
#182=CARTESIAN_POINT('',(0.,0.,0.));
#183=CARTESIAN_POINT('',(300.,0.,0.));
#184=CARTESIAN_POINT('',(300.,0.,0.));
#185=CARTESIAN_POINT('',(300.,0.,-100.));
#186=CARTESIAN_POINT('',(0.,0.,0.));
#187=CARTESIAN_POINT('',(0.,0.,100.));
#188=CARTESIAN_POINT('',(0.,0.,-100.));
#189=CARTESIAN_POINT('',(0.,0.,0.));
#190=CARTESIAN_POINT('',(-300.,0.,0.));
#191=CARTESIAN_POINT('',(-300.,0.,-100.));
#192=CARTESIAN_POINT('',(300.,0.,0.));
#193=CARTESIAN_POINT('',(300.,0.,0.));
#194=CARTESIAN_POINT('',(300.,0.,-102.));
#195=CARTESIAN_POINT('',(0.,0.,0.));
#196=CARTESIAN_POINT('',(0.,0.,-102.));
#197=CARTESIAN_POINT('',(0.,0.,102.));
#198=CARTESIAN_POINT('',(0.,0.,0.));
#199=CARTESIAN_POINT('',(-300.,0.,0.));
#200=CARTESIAN_POINT('',(-300.,0.,-102.));
#201=CARTESIAN_POINT('',(-300.,0.,0.));
#202=CARTESIAN_POINT('',(300.,102.,0.));
#203=CARTESIAN_POINT('',(0.,0.,0.));
#204=CARTESIAN_POINT('',(0.,115.,0.));
#205=CARTESIAN_POINT('',(0.,115.,-102.));
#206=CARTESIAN_POINT('',(0.,115.,0.));
#207=CARTESIAN_POINT('',(0.,115.,0.));
#208=CARTESIAN_POINT('',(0.,115.,-100.));
#209=CARTESIAN_POINT('',(0.,0.,0.));
#210=MECHANICAL_DESIGN_GEOMETRIC_PRESENTATION_REPRESENTATION('',(#117),
#211);
#211=(
GEOMETRIC_REPRESENTATION_CONTEXT(3)
GLOBAL_UNCERTAINTY_ASSIGNED_CONTEXT((#212))
GLOBAL_UNIT_ASSIGNED_CONTEXT((#215,#214,#213))
REPRESENTATION_CONTEXT('9615227534','TOP_LEVEL_ASSEMBLY_PART')
);
#212=UNCERTAINTY_MEASURE_WITH_UNIT(LENGTH_MEASURE(0.005),#215,
'DISTANCE_ACCURACY_VALUE','Maximum Tolerance applied to model');
#213=(
NAMED_UNIT(*)
SI_UNIT($,.STERADIAN.)
SOLID_ANGLE_UNIT()
);
#214=(
NAMED_UNIT(*)
PLANE_ANGLE_UNIT()
SI_UNIT($,.RADIAN.)
);
#215=(
LENGTH_UNIT()
NAMED_UNIT(*)
SI_UNIT(.MILLI.,.METRE.)
);
#216=PRODUCT_DEFINITION_SHAPE('','',#217);
#217=PRODUCT_DEFINITION('','',#219,#218);
#218=DESIGN_CONTEXT('',#225,'design');
#219=PRODUCT_DEFINITION_FORMATION_WITH_SPECIFIED_SOURCE('','',#221,
 .NOT_KNOWN.);
#220=PRODUCT_RELATED_PRODUCT_CATEGORY('','',(#221));
#221=PRODUCT('9615227534','9615227534','9615227534',(#223));
#222=PRODUCT_CATEGORY('','');
#223=MECHANICAL_CONTEXT('',#225,'mechanical');
#224=APPLICATION_PROTOCOL_DEFINITION('international standard',
'config_control_design',2010,#225);
#225=APPLICATION_CONTEXT(
'configuration controlled 3D designs of mechanical parts and assemblie
s');
ENDSEC;
END-ISO-10303-21;
