ISO-10303-21;
HEADER;
/****************************************************************
 * Generated by software with PDE/Lib inside                    *
 * PDElib Version v51a, created Thu 12/14/2006                  *
 * International Technegroup Inc. (www.iti-oh.com)              *
 ****************************************************************/
FILE_DESCRIPTION((''),'2;1');
FILE_NAME('T:\\Arbeitspl\S\dtze\\Aushilfe\\KPeters\\3D\\Steps 08_10\\12900\\12900015X.stp','2010-08-05T14:30:11',('thilbrands'),(''),'Autodesk Inventor 2008','Autodesk Inventor 2008','');
FILE_SCHEMA(('AUTOMOTIVE_DESIGN { 1 0 10303 214 1 1 1 1 }'));
ENDSEC;
DATA;
#5=APPLICATION_CONTEXT('automotive design');
#6=APPLICATION_PROTOCOL_DEFINITION('International Standard','automotive_design',2001,#5);
#7=PRODUCT_CONTEXT('',#5,'mechanical');
#8=PRODUCT('ENG-005011','ENG-005011',$,(#7));
#9=PRODUCT_RELATED_PRODUCT_CATEGORY('part',$,(#8));
#10=PRODUCT_DEFINITION_FORMATION('',$,#8);
#11=PRODUCT_DEFINITION_CONTEXT('part definition',#5,'design');
#12=PRODUCT_DEFINITION('',$,#10,#11);
#18=(NAMED_UNIT(*)PLANE_ANGLE_UNIT()SI_UNIT($,.RADIAN.));
#19=DIMENSIONAL_EXPONENTS(0.0,0.0,0.0,0.0,0.0,0.0,0.0);
#20=PLANE_ANGLE_MEASURE_WITH_UNIT(PLANE_ANGLE_MEASURE(0.017453292500000),#18);
#24=(CONVERSION_BASED_UNIT('DEGREE',#20)NAMED_UNIT(#19)PLANE_ANGLE_UNIT());
#28=(NAMED_UNIT(*)SI_UNIT($,.STERADIAN.)SOLID_ANGLE_UNIT());
#32=(LENGTH_UNIT()NAMED_UNIT(*)SI_UNIT(.MILLI.,.METRE.));
#34=UNCERTAINTY_MEASURE_WITH_UNIT(LENGTH_MEASURE(0.010000000000000),#32,'DISTANCE_ACCURACY_VALUE','');
#36=(GEOMETRIC_REPRESENTATION_CONTEXT(3)GLOBAL_UNCERTAINTY_ASSIGNED_CONTEXT((#34))GLOBAL_UNIT_ASSIGNED_CONTEXT((#24,#28,#32))REPRESENTATION_CONTEXT('None','None'));
#37=AXIS2_PLACEMENT_3D('',#38,#39,#40);
#38=CARTESIAN_POINT('',(0.0,0.0,0.0));
#39=DIRECTION('',(0.0,0.0,1.0));
#40=DIRECTION('',(1.0,0.0,0.0));
#41=SHAPE_REPRESENTATION('',(#37),#36);
#42=PRODUCT_DEFINITION_SHAPE('','',#12);
#43=SHAPE_DEFINITION_REPRESENTATION(#42,#41);
#49=(NAMED_UNIT(*)PLANE_ANGLE_UNIT()SI_UNIT($,.RADIAN.));
#50=DIMENSIONAL_EXPONENTS(0.0,0.0,0.0,0.0,0.0,0.0,0.0);
#51=PLANE_ANGLE_MEASURE_WITH_UNIT(PLANE_ANGLE_MEASURE(0.017453292500000),#49);
#55=(CONVERSION_BASED_UNIT('DEGREE',#51)NAMED_UNIT(#50)PLANE_ANGLE_UNIT());
#59=(NAMED_UNIT(*)SI_UNIT($,.STERADIAN.)SOLID_ANGLE_UNIT());
#63=(LENGTH_UNIT()NAMED_UNIT(*)SI_UNIT(.MILLI.,.METRE.));
#65=UNCERTAINTY_MEASURE_WITH_UNIT(LENGTH_MEASURE(0.000001000000000),#63,'DISTANCE_ACCURACY_VALUE','');
#67=(GEOMETRIC_REPRESENTATION_CONTEXT(3)GLOBAL_UNCERTAINTY_ASSIGNED_CONTEXT((#65))GLOBAL_UNIT_ASSIGNED_CONTEXT((#55,#59,#63))REPRESENTATION_CONTEXT('','3D'));
#68=CARTESIAN_POINT('',(29.589890055262103,0.0,0.0));
#69=DIRECTION('',(1.0,0.0,0.0));
#70=DIRECTION('',(0.0,1.0,0.0));
#71=AXIS2_PLACEMENT_3D('',#68,#69,#70);
#72=CONICAL_SURFACE('',#71,9.988750000000001,50.000000000000085);
#73=CARTESIAN_POINT('',(29.179780110524209,9.500000000000000,0.0));
#74=VERTEX_POINT('',#73);
#75=CARTESIAN_POINT('',(29.179780110524209,0.0,0.0));
#76=DIRECTION('',(1.0,0.0,0.0));
#77=DIRECTION('',(0.0,-1.0,0.0));
#78=AXIS2_PLACEMENT_3D('',#75,#76,#77);
#79=CIRCLE('',#78,9.500000000000000);
#80=EDGE_CURVE('',#74,#74,#79,.T.);
#81=ORIENTED_EDGE('',*,*,#80,.F.);
#82=EDGE_LOOP('',(#81));
#83=FACE_OUTER_BOUND('',#82,.T.);
#84=CARTESIAN_POINT('',(30.0,10.477500000000003,0.0));
#85=VERTEX_POINT('',#84);
#86=CARTESIAN_POINT('',(30.0,0.0,0.0));
#87=DIRECTION('',(-1.0,0.0,0.0));
#88=DIRECTION('',(0.0,1.0,0.0));
#89=AXIS2_PLACEMENT_3D('',#86,#87,#88);
#90=CIRCLE('',#89,10.477500000000003);
#91=EDGE_CURVE('',#85,#85,#90,.T.);
#92=ORIENTED_EDGE('',*,*,#91,.F.);
#93=EDGE_LOOP('',(#92));
#94=FACE_BOUND('',#93,.T.);
#95=ADVANCED_FACE('',(#83,#94),#72,.F.);
#96=CARTESIAN_POINT('',(19.582469568380418,0.0,0.0));
#97=DIRECTION('',(-1.0,0.0,0.0));
#98=DIRECTION('',(0.0,1.0,0.0));
#99=AXIS2_PLACEMENT_3D('',#96,#97,#98);
#100=CONICAL_SURFACE('',#99,9.988750000000001,40.000000000000099);
#101=CARTESIAN_POINT('',(19.0,-10.477500000000003,0.0));
#102=VERTEX_POINT('',#101);
#103=CARTESIAN_POINT('',(19.0,0.0,0.0));
#104=DIRECTION('',(-1.0,0.0,0.0));
#105=DIRECTION('',(0.0,-1.0,0.0));
#106=AXIS2_PLACEMENT_3D('',#103,#104,#105);
#107=CIRCLE('',#106,10.477500000000003);
#108=EDGE_CURVE('',#102,#102,#107,.T.);
#109=ORIENTED_EDGE('',*,*,#108,.T.);
#110=EDGE_LOOP('',(#109));
#111=FACE_OUTER_BOUND('',#110,.T.);
#112=CARTESIAN_POINT('',(20.164939136760836,9.500000000000000,0.0));
#113=VERTEX_POINT('',#112);
#114=CARTESIAN_POINT('',(20.164939136760836,0.0,0.0));
#115=DIRECTION('',(-1.0,0.0,0.0));
#116=DIRECTION('',(0.0,-1.0,0.0));
#117=AXIS2_PLACEMENT_3D('',#114,#115,#116);
#118=CIRCLE('',#117,9.500000000000000);
#119=EDGE_CURVE('',#113,#113,#118,.T.);
#120=ORIENTED_EDGE('',*,*,#119,.F.);
#121=EDGE_LOOP('',(#120));
#122=FACE_BOUND('',#121,.T.);
#123=ADVANCED_FACE('',(#111,#122),#100,.F.);
#124=CARTESIAN_POINT('',(28.0,0.0,0.0));
#125=DIRECTION('',(-1.0,0.0,0.0));
#126=DIRECTION('',(0.0,0.0,1.0));
#127=AXIS2_PLACEMENT_3D('',#124,#125,#126);
#128=TOROIDAL_SURFACE('',#127,11.999999999999996,2.0);
#129=CARTESIAN_POINT('',(30.0,-11.999999999999996,0.0));
#130=VERTEX_POINT('',#129);
#131=CARTESIAN_POINT('',(30.0,0.0,0.0));
#132=DIRECTION('',(-1.0,0.0,0.0));
#133=DIRECTION('',(0.0,1.0,0.0));
#134=AXIS2_PLACEMENT_3D('',#131,#132,#133);
#135=CIRCLE('',#134,11.999999999999996);
#136=EDGE_CURVE('',#130,#130,#135,.T.);
#137=ORIENTED_EDGE('',*,*,#136,.T.);
#138=EDGE_LOOP('',(#137));
#139=FACE_OUTER_BOUND('',#138,.T.);
#140=CARTESIAN_POINT('',(28.0,-13.999999999999996,-3.428898E-015));
#141=VERTEX_POINT('',#140);
#142=CARTESIAN_POINT('',(28.0,0.0,0.0));
#143=DIRECTION('',(1.0,0.0,0.0));
#144=DIRECTION('',(0.0,1.0,0.0));
#145=AXIS2_PLACEMENT_3D('',#142,#143,#144);
#146=CIRCLE('',#145,13.999999999999996);
#147=EDGE_CURVE('',#141,#141,#146,.T.);
#148=ORIENTED_EDGE('',*,*,#147,.T.);
#149=EDGE_LOOP('',(#148));
#150=FACE_BOUND('',#149,.T.);
#151=ADVANCED_FACE('',(#139,#150),#128,.T.);
#152=CARTESIAN_POINT('',(21.0,0.0,0.0));
#153=DIRECTION('',(-1.0,0.0,0.0));
#154=DIRECTION('',(0.0,-1.0,0.0));
#155=AXIS2_PLACEMENT_3D('',#152,#153,#154);
#156=CYLINDRICAL_SURFACE('',#155,13.999999999999996);
#157=CARTESIAN_POINT('',(12.000000000000002,-14.0,0.0));
#158=VERTEX_POINT('',#157);
#159=CARTESIAN_POINT('',(12.000000000000002,0.0,0.0));
#160=DIRECTION('',(-1.0,0.0,0.0));
#161=DIRECTION('',(0.0,-1.0,0.0));
#162=AXIS2_PLACEMENT_3D('',#159,#160,#161);
#163=CIRCLE('',#162,14.0);
#164=EDGE_CURVE('',#158,#158,#163,.T.);
#165=ORIENTED_EDGE('',*,*,#164,.F.);
#166=EDGE_LOOP('',(#165));
#167=FACE_OUTER_BOUND('',#166,.T.);
#168=CARTESIAN_POINT('',(16.999999999999989,12.000000000000007,7.211102550927961));
#169=VERTEX_POINT('',#168);
#170=CARTESIAN_POINT('',(16.999999999999989,12.000000000000007,-7.211102550927961));
#171=VERTEX_POINT('',#170);
#172=CARTESIAN_POINT('',(16.999999999999989,0.0,0.0));
#173=DIRECTION('',(-1.0,0.0,0.0));
#174=DIRECTION('',(0.0,-1.0,0.0));
#175=AXIS2_PLACEMENT_3D('',#172,#173,#174);
#176=CIRCLE('',#175,13.999999999999996);
#177=EDGE_CURVE('',#169,#171,#176,.T.);
#178=ORIENTED_EDGE('',*,*,#177,.T.);
#179=CARTESIAN_POINT('',(24.999999999999993,12.000000000000011,-7.211102550927953));
#180=VERTEX_POINT('',#179);
#181=CARTESIAN_POINT('',(16.999999999999989,12.000000000000007,-7.211102550927961));
#182=DIRECTION('',(1.0,0.0,0.0));
#183=VECTOR('',#182,8.000000000000004);
#184=LINE('',#181,#183);
#185=EDGE_CURVE('',#171,#180,#184,.T.);
#186=ORIENTED_EDGE('',*,*,#185,.T.);
#187=CARTESIAN_POINT('',(24.999999999999993,12.000000000000011,7.211102550927953));
#188=VERTEX_POINT('',#187);
#189=CARTESIAN_POINT('',(24.999999999999993,0.0,0.0));
#190=DIRECTION('',(1.0,0.0,0.0));
#191=DIRECTION('',(0.0,-1.0,0.0));
#192=AXIS2_PLACEMENT_3D('',#189,#190,#191);
#193=CIRCLE('',#192,13.999999999999996);
#194=EDGE_CURVE('',#180,#188,#193,.T.);
#195=ORIENTED_EDGE('',*,*,#194,.T.);
#196=CARTESIAN_POINT('',(24.999999999999993,12.000000000000011,7.211102550927953));
#197=DIRECTION('',(-1.0,0.0,0.0));
#198=VECTOR('',#197,8.000000000000004);
#199=LINE('',#196,#198);
#200=EDGE_CURVE('',#188,#169,#199,.T.);
#201=ORIENTED_EDGE('',*,*,#200,.T.);
#202=EDGE_LOOP('',(#178,#186,#195,#201));
#203=FACE_BOUND('',#202,.T.);
#204=CARTESIAN_POINT('',(24.999999999999993,-12.000000000000011,-7.211102550927953));
#205=VERTEX_POINT('',#204);
#206=CARTESIAN_POINT('',(16.999999999999989,-12.000000000000007,-7.211102550927961));
#207=VERTEX_POINT('',#206);
#208=CARTESIAN_POINT('',(24.999999999999993,-12.000000000000011,-7.211102550927953));
#209=DIRECTION('',(-1.0,0.0,0.0));
#210=VECTOR('',#209,8.000000000000004);
#211=LINE('',#208,#210);
#212=EDGE_CURVE('',#205,#207,#211,.T.);
#213=ORIENTED_EDGE('',*,*,#212,.T.);
#214=CARTESIAN_POINT('',(16.999999999999989,-12.000000000000007,7.211102550927961));
#215=VERTEX_POINT('',#214);
#216=CARTESIAN_POINT('',(16.999999999999989,0.0,0.0));
#217=DIRECTION('',(-1.0,0.0,0.0));
#218=DIRECTION('',(0.0,-1.0,0.0));
#219=AXIS2_PLACEMENT_3D('',#216,#217,#218);
#220=CIRCLE('',#219,13.999999999999996);
#221=EDGE_CURVE('',#207,#215,#220,.T.);
#222=ORIENTED_EDGE('',*,*,#221,.T.);
#223=CARTESIAN_POINT('',(24.999999999999993,-12.000000000000011,7.211102550927953));
#224=VERTEX_POINT('',#223);
#225=CARTESIAN_POINT('',(16.999999999999989,-12.000000000000007,7.211102550927961));
#226=DIRECTION('',(1.0,0.0,0.0));
#227=VECTOR('',#226,8.000000000000004);
#228=LINE('',#225,#227);
#229=EDGE_CURVE('',#215,#224,#228,.T.);
#230=ORIENTED_EDGE('',*,*,#229,.T.);
#231=CARTESIAN_POINT('',(24.999999999999993,0.0,0.0));
#232=DIRECTION('',(1.0,0.0,0.0));
#233=DIRECTION('',(0.0,-1.0,0.0));
#234=AXIS2_PLACEMENT_3D('',#231,#232,#233);
#235=CIRCLE('',#234,13.999999999999996);
#236=EDGE_CURVE('',#224,#205,#235,.T.);
#237=ORIENTED_EDGE('',*,*,#236,.T.);
#238=EDGE_LOOP('',(#213,#222,#230,#237));
#239=FACE_BOUND('',#238,.T.);
#240=ORIENTED_EDGE('',*,*,#147,.F.);
#241=EDGE_LOOP('',(#240));
#242=FACE_BOUND('',#241,.T.);
#243=ADVANCED_FACE('',(#167,#203,#239,#242),#156,.T.);
#244=CARTESIAN_POINT('',(30.0,-11.749999999999998,0.0));
#245=DIRECTION('',(1.0,0.0,0.0));
#246=DIRECTION('',(0.0,0.0,-1.0));
#247=AXIS2_PLACEMENT_3D('',#244,#245,#246);
#248=PLANE('',#247);
#249=ORIENTED_EDGE('',*,*,#136,.F.);
#250=EDGE_LOOP('',(#249));
#251=FACE_OUTER_BOUND('',#250,.T.);
#252=ORIENTED_EDGE('',*,*,#91,.T.);
#253=EDGE_LOOP('',(#252));
#254=FACE_BOUND('',#253,.T.);
#255=ADVANCED_FACE('',(#251,#254),#248,.T.);
#256=CARTESIAN_POINT('',(24.999999999999993,-12.000000000000011,7.211102550927961));
#257=CARTESIAN_POINT('',(24.999999999999993,-12.000000000000011,-7.211102550927961));
#258=CARTESIAN_POINT('',(16.999999999999989,-12.000000000000005,7.211102550927961));
#259=CARTESIAN_POINT('',(16.999999999999993,-12.000000000000004,-7.211102550927961));
#260=B_SPLINE_SURFACE_WITH_KNOTS('',1,1,((#256,#258),(#257,#259)),.UNSPECIFIED.,.F.,.F.,.U.,(2,2),(2,2),(0.0,14.422205101855923),(0.0,8.000000000000004),.UNSPECIFIED.);
#261=ORIENTED_EDGE('',*,*,#229,.F.);
#262=CARTESIAN_POINT('',(16.999999999999989,-12.000000000000007,-7.211102550927961));
#263=DIRECTION('',(0.0,0.0,1.0));
#264=VECTOR('',#263,14.422205101855923);
#265=LINE('',#262,#264);
#266=EDGE_CURVE('',#207,#215,#265,.T.);
#267=ORIENTED_EDGE('',*,*,#266,.F.);
#268=ORIENTED_EDGE('',*,*,#212,.F.);
#269=CARTESIAN_POINT('',(24.999999999999993,-12.000000000000011,-7.211102550927953));
#270=DIRECTION('',(0.0,0.0,1.0));
#271=VECTOR('',#270,14.422205101855907);
#272=LINE('',#269,#271);
#273=EDGE_CURVE('',#205,#224,#272,.T.);
#274=ORIENTED_EDGE('',*,*,#273,.T.);
#275=EDGE_LOOP('',(#261,#267,#268,#274));
#276=FACE_OUTER_BOUND('',#275,.T.);
#277=ADVANCED_FACE('',(#276),#260,.F.);
#278=CARTESIAN_POINT('',(16.999999999999989,-13.999999999999996,-7.211102550927962));
#279=CARTESIAN_POINT('',(16.999999999999989,-13.999999999999996,7.211102550927962));
#280=CARTESIAN_POINT('',(16.999999999999989,-12.000000000000005,-7.211102550927962));
#281=CARTESIAN_POINT('',(16.999999999999989,-12.000000000000004,7.211102550927962));
#282=B_SPLINE_SURFACE_WITH_KNOTS('',1,1,((#278,#280),(#279,#281)),.UNSPECIFIED.,.F.,.F.,.U.,(2,2),(2,2),(0.0,14.422205101855925),(0.0,1.999999999999991),.UNSPECIFIED.);
#283=ORIENTED_EDGE('',*,*,#221,.F.);
#284=ORIENTED_EDGE('',*,*,#266,.T.);
#285=EDGE_LOOP('',(#283,#284));
#286=FACE_OUTER_BOUND('',#285,.T.);
#287=ADVANCED_FACE('',(#286),#282,.F.);
#288=CARTESIAN_POINT('',(24.999999999999993,-13.999999999999996,7.211102550927953));
#289=CARTESIAN_POINT('',(24.999999999999993,-13.999999999999996,-7.211102550927953));
#290=CARTESIAN_POINT('',(24.999999999999993,-12.000000000000011,7.211102550927953));
#291=CARTESIAN_POINT('',(24.999999999999993,-12.000000000000011,-7.211102550927953));
#292=B_SPLINE_SURFACE_WITH_KNOTS('',1,1,((#288,#290),(#289,#291)),.UNSPECIFIED.,.F.,.F.,.U.,(2,2),(2,2),(0.0,14.422205101855907),(0.0,1.999999999999986),.UNSPECIFIED.);
#293=ORIENTED_EDGE('',*,*,#236,.F.);
#294=ORIENTED_EDGE('',*,*,#273,.F.);
#295=EDGE_LOOP('',(#293,#294));
#296=FACE_OUTER_BOUND('',#295,.T.);
#297=ADVANCED_FACE('',(#296),#292,.F.);
#298=CARTESIAN_POINT('',(24.999999999999993,12.000000000000011,0.0));
#299=DIRECTION('',(0.0,-1.0,0.0));
#300=DIRECTION('',(0.0,0.0,-1.0));
#301=AXIS2_PLACEMENT_3D('',#298,#299,#300);
#302=PLANE('',#301);
#303=ORIENTED_EDGE('',*,*,#200,.F.);
#304=CARTESIAN_POINT('',(24.999999999999993,12.000000000000011,-7.211102550927953));
#305=DIRECTION('',(0.0,0.0,1.0));
#306=VECTOR('',#305,14.422205101855907);
#307=LINE('',#304,#306);
#308=EDGE_CURVE('',#180,#188,#307,.T.);
#309=ORIENTED_EDGE('',*,*,#308,.F.);
#310=ORIENTED_EDGE('',*,*,#185,.F.);
#311=CARTESIAN_POINT('',(16.999999999999989,12.000000000000007,-7.211102550927961));
#312=DIRECTION('',(0.0,0.0,1.0));
#313=VECTOR('',#312,14.422205101855923);
#314=LINE('',#311,#313);
#315=EDGE_CURVE('',#171,#169,#314,.T.);
#316=ORIENTED_EDGE('',*,*,#315,.T.);
#317=EDGE_LOOP('',(#303,#309,#310,#316));
#318=FACE_OUTER_BOUND('',#317,.T.);
#319=ADVANCED_FACE('',(#318),#302,.F.);
#320=CARTESIAN_POINT('',(16.999999999999989,12.000000000000007,0.0));
#321=DIRECTION('',(-1.0,0.0,0.0));
#322=DIRECTION('',(0.0,0.0,1.0));
#323=AXIS2_PLACEMENT_3D('',#320,#321,#322);
#324=PLANE('',#323);
#325=ORIENTED_EDGE('',*,*,#177,.F.);
#326=ORIENTED_EDGE('',*,*,#315,.F.);
#327=EDGE_LOOP('',(#325,#326));
#328=FACE_OUTER_BOUND('',#327,.T.);
#329=ADVANCED_FACE('',(#328),#324,.F.);
#330=CARTESIAN_POINT('',(24.999999999999993,13.999999999999996,0.0));
#331=DIRECTION('',(1.0,0.0,0.0));
#332=DIRECTION('',(0.0,0.0,-1.0));
#333=AXIS2_PLACEMENT_3D('',#330,#331,#332);
#334=PLANE('',#333);
#335=ORIENTED_EDGE('',*,*,#194,.F.);
#336=ORIENTED_EDGE('',*,*,#308,.T.);
#337=EDGE_LOOP('',(#335,#336));
#338=FACE_OUTER_BOUND('',#337,.T.);
#339=ADVANCED_FACE('',(#338),#334,.F.);
#340=CARTESIAN_POINT('',(2.000000000000000,0.0,0.0));
#341=DIRECTION('',(-1.0,0.0,0.0));
#342=DIRECTION('',(0.0,-1.0,0.0));
#343=AXIS2_PLACEMENT_3D('',#340,#341,#342);
#344=CONICAL_SURFACE('',#343,13.435898384862242,14.999999999999977);
#345=CARTESIAN_POINT('',(4.0,-12.899999999999999,0.0));
#346=VERTEX_POINT('',#345);
#347=CARTESIAN_POINT('',(4.0,0.0,0.0));
#348=DIRECTION('',(-1.0,0.0,0.0));
#349=DIRECTION('',(0.0,-1.0,0.0));
#350=AXIS2_PLACEMENT_3D('',#347,#348,#349);
#351=CIRCLE('',#350,12.899999999999999);
#352=EDGE_CURVE('',#346,#346,#351,.T.);
#353=ORIENTED_EDGE('',*,*,#352,.F.);
#354=EDGE_LOOP('',(#353));
#355=FACE_OUTER_BOUND('',#354,.T.);
#356=CARTESIAN_POINT('',(5.551115E-016,-13.971796769724488,0.0));
#357=VERTEX_POINT('',#356);
#358=CARTESIAN_POINT('',(5.551115E-016,0.0,0.0));
#359=DIRECTION('',(-1.0,0.0,0.0));
#360=DIRECTION('',(0.0,-1.0,0.0));
#361=AXIS2_PLACEMENT_3D('',#358,#359,#360);
#362=CIRCLE('',#361,13.971796769724488);
#363=EDGE_CURVE('',#357,#357,#362,.T.);
#364=ORIENTED_EDGE('',*,*,#363,.T.);
#365=EDGE_LOOP('',(#364));
#366=FACE_BOUND('',#365,.T.);
#367=ADVANCED_FACE('',(#355,#366),#344,.F.);
#368=CARTESIAN_POINT('',(5.500000000000000,0.0,0.0));
#369=DIRECTION('',(-1.0,0.0,0.0));
#370=DIRECTION('',(0.0,-1.0,0.0));
#371=AXIS2_PLACEMENT_3D('',#368,#369,#370);
#372=CYLINDRICAL_SURFACE('',#371,12.900000000000000);
#373=CARTESIAN_POINT('',(7.000000000000001,-12.900000000000000,0.0));
#374=VERTEX_POINT('',#373);
#375=CARTESIAN_POINT('',(7.000000000000001,0.0,0.0));
#376=DIRECTION('',(-1.0,0.0,0.0));
#377=DIRECTION('',(0.0,-1.0,0.0));
#378=AXIS2_PLACEMENT_3D('',#375,#376,#377);
#379=CIRCLE('',#378,12.900000000000000);
#380=EDGE_CURVE('',#374,#374,#379,.T.);
#381=ORIENTED_EDGE('',*,*,#380,.F.);
#382=EDGE_LOOP('',(#381));
#383=FACE_OUTER_BOUND('',#382,.T.);
#384=ORIENTED_EDGE('',*,*,#352,.T.);
#385=EDGE_LOOP('',(#384));
#386=FACE_BOUND('',#385,.T.);
#387=ADVANCED_FACE('',(#383,#386),#372,.F.);
#388=CARTESIAN_POINT('',(7.000000000000001,-10.949999999999999,0.0));
#389=DIRECTION('',(-1.0,0.0,0.0));
#390=DIRECTION('',(0.0,0.0,1.0));
#391=AXIS2_PLACEMENT_3D('',#388,#389,#390);
#392=PLANE('',#391);
#393=ORIENTED_EDGE('',*,*,#380,.T.);
#394=EDGE_LOOP('',(#393));
#395=FACE_OUTER_BOUND('',#394,.T.);
#396=CARTESIAN_POINT('',(7.000000000000001,-9.0,0.0));
#397=VERTEX_POINT('',#396);
#398=CARTESIAN_POINT('',(7.000000000000001,0.0,0.0));
#399=DIRECTION('',(-1.0,0.0,0.0));
#400=DIRECTION('',(0.0,-1.0,0.0));
#401=AXIS2_PLACEMENT_3D('',#398,#399,#400);
#402=CIRCLE('',#401,9.0);
#403=EDGE_CURVE('',#397,#397,#402,.T.);
#404=ORIENTED_EDGE('',*,*,#403,.F.);
#405=EDGE_LOOP('',(#404));
#406=FACE_BOUND('',#405,.T.);
#407=ADVANCED_FACE('',(#395,#406),#392,.T.);
#408=CARTESIAN_POINT('',(5.500000000000000,0.0,0.0));
#409=DIRECTION('',(-1.0,0.0,0.0));
#410=DIRECTION('',(0.0,-1.0,0.0));
#411=AXIS2_PLACEMENT_3D('',#408,#409,#410);
#412=CYLINDRICAL_SURFACE('',#411,9.0);
#413=CARTESIAN_POINT('',(4.0,-9.0,0.0));
#414=VERTEX_POINT('',#413);
#415=CARTESIAN_POINT('',(4.0,0.0,0.0));
#416=DIRECTION('',(-1.0,0.0,0.0));
#417=DIRECTION('',(0.0,-1.0,0.0));
#418=AXIS2_PLACEMENT_3D('',#415,#416,#417);
#419=CIRCLE('',#418,9.0);
#420=EDGE_CURVE('',#414,#414,#419,.T.);
#421=ORIENTED_EDGE('',*,*,#420,.F.);
#422=EDGE_LOOP('',(#421));
#423=FACE_OUTER_BOUND('',#422,.T.);
#424=ORIENTED_EDGE('',*,*,#403,.T.);
#425=EDGE_LOOP('',(#424));
#426=FACE_BOUND('',#425,.T.);
#427=ADVANCED_FACE('',(#423,#426),#412,.T.);
#428=CARTESIAN_POINT('',(4.000000000000001,-8.500000000000000,0.0));
#429=DIRECTION('',(-1.0,0.0,0.0));
#430=DIRECTION('',(0.0,0.0,1.0));
#431=AXIS2_PLACEMENT_3D('',#428,#429,#430);
#432=PLANE('',#431);
#433=ORIENTED_EDGE('',*,*,#420,.T.);
#434=EDGE_LOOP('',(#433));
#435=FACE_OUTER_BOUND('',#434,.T.);
#436=CARTESIAN_POINT('',(4.000000000000002,-8.000000000000004,0.0));
#437=VERTEX_POINT('',#436);
#438=CARTESIAN_POINT('',(4.000000000000002,0.0,0.0));
#439=DIRECTION('',(-1.0,0.0,0.0));
#440=DIRECTION('',(0.0,-1.0,0.0));
#441=AXIS2_PLACEMENT_3D('',#438,#439,#440);
#442=CIRCLE('',#441,8.000000000000004);
#443=EDGE_CURVE('',#437,#437,#442,.T.);
#444=ORIENTED_EDGE('',*,*,#443,.F.);
#445=EDGE_LOOP('',(#444));
#446=FACE_BOUND('',#445,.T.);
#447=ADVANCED_FACE('',(#435,#446),#432,.T.);
#448=CARTESIAN_POINT('',(10.0,0.0,0.0));
#449=DIRECTION('',(-1.0,0.0,0.0));
#450=DIRECTION('',(0.0,-1.0,0.0));
#451=AXIS2_PLACEMENT_3D('',#448,#449,#450);
#452=CYLINDRICAL_SURFACE('',#451,8.000000000000002);
#453=CARTESIAN_POINT('',(15.999999999999998,-8.0,0.0));
#454=VERTEX_POINT('',#453);
#455=CARTESIAN_POINT('',(15.999999999999998,0.0,0.0));
#456=DIRECTION('',(-1.0,0.0,0.0));
#457=DIRECTION('',(0.0,-1.0,0.0));
#458=AXIS2_PLACEMENT_3D('',#455,#456,#457);
#459=CIRCLE('',#458,8.0);
#460=EDGE_CURVE('',#454,#454,#459,.T.);
#461=ORIENTED_EDGE('',*,*,#460,.F.);
#462=EDGE_LOOP('',(#461));
#463=FACE_OUTER_BOUND('',#462,.T.);
#464=ORIENTED_EDGE('',*,*,#443,.T.);
#465=EDGE_LOOP('',(#464));
#466=FACE_BOUND('',#465,.T.);
#467=ADVANCED_FACE('',(#463,#466),#452,.F.);
#468=CARTESIAN_POINT('',(15.999999999999998,-9.238750000000001,0.0));
#469=DIRECTION('',(1.0,0.0,0.0));
#470=DIRECTION('',(0.0,0.0,-1.0));
#471=AXIS2_PLACEMENT_3D('',#468,#469,#470);
#472=PLANE('',#471);
#473=CARTESIAN_POINT('',(15.999999999999998,-10.477500000000003,0.0));
#474=VERTEX_POINT('',#473);
#475=CARTESIAN_POINT('',(15.999999999999998,0.0,0.0));
#476=DIRECTION('',(-1.0,0.0,0.0));
#477=DIRECTION('',(0.0,-1.0,0.0));
#478=AXIS2_PLACEMENT_3D('',#475,#476,#477);
#479=CIRCLE('',#478,10.477500000000003);
#480=EDGE_CURVE('',#474,#474,#479,.T.);
#481=ORIENTED_EDGE('',*,*,#480,.F.);
#482=EDGE_LOOP('',(#481));
#483=FACE_OUTER_BOUND('',#482,.T.);
#484=ORIENTED_EDGE('',*,*,#460,.T.);
#485=EDGE_LOOP('',(#484));
#486=FACE_BOUND('',#485,.T.);
#487=ADVANCED_FACE('',(#483,#486),#472,.T.);
#488=CARTESIAN_POINT('',(17.500000000000000,0.0,0.0));
#489=DIRECTION('',(-1.0,0.0,0.0));
#490=DIRECTION('',(0.0,-1.0,0.0));
#491=AXIS2_PLACEMENT_3D('',#488,#489,#490);
#492=CYLINDRICAL_SURFACE('',#491,10.477500000000003);
#493=ORIENTED_EDGE('',*,*,#108,.F.);
#494=EDGE_LOOP('',(#493));
#495=FACE_OUTER_BOUND('',#494,.T.);
#496=ORIENTED_EDGE('',*,*,#480,.T.);
#497=EDGE_LOOP('',(#496));
#498=FACE_BOUND('',#497,.T.);
#499=ADVANCED_FACE('',(#495,#498),#492,.F.);
#500=CARTESIAN_POINT('',(24.500000000000000,0.0,0.0));
#501=DIRECTION('',(-1.0,0.0,0.0));
#502=DIRECTION('',(0.0,-1.0,0.0));
#503=AXIS2_PLACEMENT_3D('',#500,#501,#502);
#504=CYLINDRICAL_SURFACE('',#503,9.500000000000000);
#505=ORIENTED_EDGE('',*,*,#80,.T.);
#506=EDGE_LOOP('',(#505));
#507=FACE_OUTER_BOUND('',#506,.T.);
#508=ORIENTED_EDGE('',*,*,#119,.T.);
#509=EDGE_LOOP('',(#508));
#510=FACE_BOUND('',#509,.T.);
#511=ADVANCED_FACE('',(#507,#510),#504,.F.);
#512=CARTESIAN_POINT('',(11.735509528937305,0.0,0.0));
#513=DIRECTION('',(-1.0,0.0,0.0));
#514=DIRECTION('',(0.0,-1.0,0.0));
#515=AXIS2_PLACEMENT_3D('',#512,#513,#514);
#516=CONICAL_SURFACE('',#515,15.500000000000000,80.000000000000028);
#517=CARTESIAN_POINT('',(11.471019057874607,-17.0,0.0));
#518=VERTEX_POINT('',#517);
#519=CARTESIAN_POINT('',(11.471019057874607,0.0,0.0));
#520=DIRECTION('',(-1.0,0.0,0.0));
#521=DIRECTION('',(0.0,-1.0,0.0));
#522=AXIS2_PLACEMENT_3D('',#519,#520,#521);
#523=CIRCLE('',#522,17.0);
#524=EDGE_CURVE('',#518,#518,#523,.T.);
#525=ORIENTED_EDGE('',*,*,#524,.F.);
#526=EDGE_LOOP('',(#525));
#527=FACE_OUTER_BOUND('',#526,.T.);
#528=ORIENTED_EDGE('',*,*,#164,.T.);
#529=EDGE_LOOP('',(#528));
#530=FACE_BOUND('',#529,.T.);
#531=ADVANCED_FACE('',(#527,#530),#516,.T.);
#532=CARTESIAN_POINT('',(6.469721706217424,0.0,0.0));
#533=DIRECTION('',(-1.0,0.0,0.0));
#534=DIRECTION('',(0.0,-1.0,0.0));
#535=AXIS2_PLACEMENT_3D('',#532,#533,#534);
#536=CYLINDRICAL_SURFACE('',#535,17.0);
#537=CARTESIAN_POINT('',(1.468424354560241,-17.0,0.0));
#538=VERTEX_POINT('',#537);
#539=CARTESIAN_POINT('',(1.468424354560241,0.0,0.0));
#540=DIRECTION('',(-1.0,0.0,0.0));
#541=DIRECTION('',(0.0,-1.0,0.0));
#542=AXIS2_PLACEMENT_3D('',#539,#540,#541);
#543=CIRCLE('',#542,17.0);
#544=EDGE_CURVE('',#538,#538,#543,.T.);
#545=ORIENTED_EDGE('',*,*,#544,.F.);
#546=EDGE_LOOP('',(#545));
#547=FACE_OUTER_BOUND('',#546,.T.);
#548=ORIENTED_EDGE('',*,*,#524,.T.);
#549=EDGE_LOOP('',(#548));
#550=FACE_BOUND('',#549,.T.);
#551=ADVANCED_FACE('',(#547,#550),#536,.T.);
#552=CARTESIAN_POINT('',(0.734212177280120,0.0,0.0));
#553=DIRECTION('',(1.0,0.0,0.0));
#554=DIRECTION('',(0.0,-1.0,0.0));
#555=AXIS2_PLACEMENT_3D('',#552,#553,#554);
#556=CONICAL_SURFACE('',#555,16.125000000000004,49.999999999999964);
#557=CARTESIAN_POINT('',(0.0,-15.250000000000004,0.0));
#558=VERTEX_POINT('',#557);
#559=CARTESIAN_POINT('',(0.0,0.0,0.0));
#560=DIRECTION('',(-1.0,0.0,0.0));
#561=DIRECTION('',(0.0,-1.0,0.0));
#562=AXIS2_PLACEMENT_3D('',#559,#560,#561);
#563=CIRCLE('',#562,15.250000000000004);
#564=EDGE_CURVE('',#558,#558,#563,.T.);
#565=ORIENTED_EDGE('',*,*,#564,.F.);
#566=EDGE_LOOP('',(#565));
#567=FACE_OUTER_BOUND('',#566,.T.);
#568=ORIENTED_EDGE('',*,*,#544,.T.);
#569=EDGE_LOOP('',(#568));
#570=FACE_BOUND('',#569,.T.);
#571=ADVANCED_FACE('',(#567,#570),#556,.T.);
#572=CARTESIAN_POINT('',(2.775558E-016,-14.610898384862246,0.0));
#573=DIRECTION('',(-1.0,0.0,0.0));
#574=DIRECTION('',(0.0,0.0,1.0));
#575=AXIS2_PLACEMENT_3D('',#572,#573,#574);
#576=PLANE('',#575);
#577=ORIENTED_EDGE('',*,*,#564,.T.);
#578=EDGE_LOOP('',(#577));
#579=FACE_OUTER_BOUND('',#578,.T.);
#580=ORIENTED_EDGE('',*,*,#363,.F.);
#581=EDGE_LOOP('',(#580));
#582=FACE_BOUND('',#581,.T.);
#583=ADVANCED_FACE('',(#579,#582),#576,.T.);
#584=CLOSED_SHELL('',(#95,#123,#151,#243,#255,#277,#287,#297,#319,#329,#339,#367,#387,#407,#427,#447,#467,#487,#499,#511,#531,#551,#571,#583));
#585=MANIFOLD_SOLID_BREP('',#584);
#586=COLOUR_RGB('Standard',0.752941012382507,0.752941012382507,0.752941012382507);
#587=FILL_AREA_STYLE_COLOUR('Standard',#586);
#588=FILL_AREA_STYLE('Standard',(#587));
#589=SURFACE_STYLE_FILL_AREA(#588);
#590=SURFACE_SIDE_STYLE('Standard',(#589));
#591=SURFACE_STYLE_USAGE(.BOTH.,#590);
#592=PRESENTATION_STYLE_ASSIGNMENT((#591));
#593=STYLED_ITEM('',(#592),#585);
#594=MECHANICAL_DESIGN_GEOMETRIC_PRESENTATION_REPRESENTATION('',(#593),#36);
#595=ADVANCED_BREP_SHAPE_REPRESENTATION('ABSR',(#585),#36);
#596=SHAPE_REPRESENTATION_RELATIONSHIP('SRR','None',#595,#41);
ENDSEC;
END-ISO-10303-21;
