ISO-10303-21;
HEADER;
/****************************************************************
 * Generated by software with PDE/Lib inside                    *
 * PDElib Version v51a, created Thu 12/14/2006                  *
 * International Technegroup Inc. (www.iti-oh.com)              *
 ****************************************************************/
FILE_DESCRIPTION((''),'2;1');
FILE_NAME('T:\\Arbeitspl\S\dtze\\Aushilfe\\KPeters\\3D\\Steps 08_10\\1860\\18601012X.stp','2010-08-11T13:44:29',('thilbrands'),(''),'Autodesk Inventor 2008','Autodesk Inventor 2008','');
FILE_SCHEMA(('AUTOMOTIVE_DESIGN { 1 0 10303 214 1 1 1 1 }'));
ENDSEC;
DATA;
#5=APPLICATION_CONTEXT('automotive design');
#6=APPLICATION_PROTOCOL_DEFINITION('International Standard','automotive_design',2001,#5);
#7=PRODUCT_CONTEXT('',#5,'mechanical');
#8=PRODUCT('Bauteil1','Bauteil1',$,(#7));
#9=PRODUCT_RELATED_PRODUCT_CATEGORY('part',$,(#8));
#10=PRODUCT_DEFINITION_FORMATION('',$,#8);
#11=PRODUCT_DEFINITION_CONTEXT('part definition',#5,'design');
#12=PRODUCT_DEFINITION('',$,#10,#11);
#18=(NAMED_UNIT(*)PLANE_ANGLE_UNIT()SI_UNIT($,.RADIAN.));
#19=DIMENSIONAL_EXPONENTS(0.0,0.0,0.0,0.0,0.0,0.0,0.0);
#20=PLANE_ANGLE_MEASURE_WITH_UNIT(PLANE_ANGLE_MEASURE(0.017453292500000),#18);
#24=(CONVERSION_BASED_UNIT('DEGREE',#20)NAMED_UNIT(#19)PLANE_ANGLE_UNIT());
#28=(NAMED_UNIT(*)SI_UNIT($,.STERADIAN.)SOLID_ANGLE_UNIT());
#32=(LENGTH_UNIT()NAMED_UNIT(*)SI_UNIT(.MILLI.,.METRE.));
#34=UNCERTAINTY_MEASURE_WITH_UNIT(LENGTH_MEASURE(0.010000000000000),#32,'DISTANCE_ACCURACY_VALUE','');
#36=(GEOMETRIC_REPRESENTATION_CONTEXT(3)GLOBAL_UNCERTAINTY_ASSIGNED_CONTEXT((#34))GLOBAL_UNIT_ASSIGNED_CONTEXT((#24,#28,#32))REPRESENTATION_CONTEXT('None','None'));
#37=AXIS2_PLACEMENT_3D('',#38,#39,#40);
#38=CARTESIAN_POINT('',(0.0,0.0,0.0));
#39=DIRECTION('',(0.0,0.0,1.0));
#40=DIRECTION('',(1.0,0.0,0.0));
#41=SHAPE_REPRESENTATION('',(#37),#36);
#42=PRODUCT_DEFINITION_SHAPE('','',#12);
#43=SHAPE_DEFINITION_REPRESENTATION(#42,#41);
#49=(NAMED_UNIT(*)PLANE_ANGLE_UNIT()SI_UNIT($,.RADIAN.));
#50=DIMENSIONAL_EXPONENTS(0.0,0.0,0.0,0.0,0.0,0.0,0.0);
#51=PLANE_ANGLE_MEASURE_WITH_UNIT(PLANE_ANGLE_MEASURE(0.017453292500000),#49);
#55=(CONVERSION_BASED_UNIT('DEGREE',#51)NAMED_UNIT(#50)PLANE_ANGLE_UNIT());
#59=(NAMED_UNIT(*)SI_UNIT($,.STERADIAN.)SOLID_ANGLE_UNIT());
#63=(LENGTH_UNIT()NAMED_UNIT(*)SI_UNIT(.MILLI.,.METRE.));
#65=UNCERTAINTY_MEASURE_WITH_UNIT(LENGTH_MEASURE(0.000001000000000),#63,'DISTANCE_ACCURACY_VALUE','');
#67=(GEOMETRIC_REPRESENTATION_CONTEXT(3)GLOBAL_UNCERTAINTY_ASSIGNED_CONTEXT((#65))GLOBAL_UNIT_ASSIGNED_CONTEXT((#55,#59,#63))REPRESENTATION_CONTEXT('','3D'));
#68=CARTESIAN_POINT('',(-6.199999999999997,4.237592243011402,0.0));
#69=DIRECTION('',(-1.0,0.0,0.0));
#70=DIRECTION('',(0.0,0.0,1.0));
#71=AXIS2_PLACEMENT_3D('',#68,#69,#70);
#72=PLANE('',#71);
#73=CARTESIAN_POINT('',(-6.199999999999998,8.475184486022807,0.0));
#74=VERTEX_POINT('',#73);
#75=CARTESIAN_POINT('',(-6.199999999999998,0.0,0.0));
#76=DIRECTION('',(1.0,0.0,0.0));
#77=DIRECTION('',(0.0,1.0,0.0));
#78=AXIS2_PLACEMENT_3D('',#75,#76,#77);
#79=CIRCLE('',#78,8.475184486022807);
#80=EDGE_CURVE('',#74,#74,#79,.T.);
#81=ORIENTED_EDGE('',*,*,#80,.F.);
#82=EDGE_LOOP('',(#81));
#83=FACE_OUTER_BOUND('',#82,.T.);
#84=ADVANCED_FACE('',(#83),#72,.T.);
#85=CARTESIAN_POINT('',(-5.950000000000001,0.0,0.0));
#86=DIRECTION('',(1.0,0.0,0.0));
#87=DIRECTION('',(0.0,0.0,-1.0));
#88=AXIS2_PLACEMENT_3D('',#85,#86,#87);
#89=TOROIDAL_SURFACE('',#88,8.475184486022808,0.249999999999997);
#90=CARTESIAN_POINT('',(-6.096946313073117,8.677438734616544,0.0));
#91=VERTEX_POINT('',#90);
#92=CARTESIAN_POINT('',(-6.096946313073117,0.0,0.0));
#93=DIRECTION('',(1.0,0.0,0.0));
#94=DIRECTION('',(0.0,1.0,0.0));
#95=AXIS2_PLACEMENT_3D('',#92,#93,#94);
#96=CIRCLE('',#95,8.677438734616544);
#97=EDGE_CURVE('',#91,#91,#96,.T.);
#98=ORIENTED_EDGE('',*,*,#97,.F.);
#99=EDGE_LOOP('',(#98));
#100=FACE_OUTER_BOUND('',#99,.T.);
#101=ORIENTED_EDGE('',*,*,#80,.T.);
#102=EDGE_LOOP('',(#101));
#103=FACE_BOUND('',#102,.T.);
#104=ADVANCED_FACE('',(#100,#103),#89,.T.);
#105=CARTESIAN_POINT('',(-5.563359055619569,0.0,0.0));
#106=DIRECTION('',(1.0,0.0,0.0));
#107=DIRECTION('',(0.0,1.0,0.0));
#108=AXIS2_PLACEMENT_3D('',#105,#106,#107);
#109=CONICAL_SURFACE('',#108,9.065112569558291,35.999999999999986);
#110=CARTESIAN_POINT('',(-5.029771798166021,9.452786404500040,0.0));
#111=VERTEX_POINT('',#110);
#112=CARTESIAN_POINT('',(-5.029771798166021,0.0,0.0));
#113=DIRECTION('',(1.0,0.0,0.0));
#114=DIRECTION('',(0.0,1.0,0.0));
#115=AXIS2_PLACEMENT_3D('',#112,#113,#114);
#116=CIRCLE('',#115,9.452786404500040);
#117=EDGE_CURVE('',#111,#111,#116,.T.);
#118=ORIENTED_EDGE('',*,*,#117,.F.);
#119=EDGE_LOOP('',(#118));
#120=FACE_OUTER_BOUND('',#119,.T.);
#121=ORIENTED_EDGE('',*,*,#97,.T.);
#122=EDGE_LOOP('',(#121));
#123=FACE_BOUND('',#122,.T.);
#124=ADVANCED_FACE('',(#120,#123),#109,.T.);
#125=CARTESIAN_POINT('',(-5.500000000000000,-1.334821E-015,10.899999999999999));
#126=CARTESIAN_POINT('',(-4.699999999999999,-1.334821E-015,10.899999999999999));
#127=CARTESIAN_POINT('',(-4.699999999999999,-1.236852E-015,10.099999999999998));
#128=CARTESIAN_POINT('',(-4.699999999999999,-1.138884E-015,9.299999999999997));
#129=CARTESIAN_POINT('',(-5.500000000000000,-1.138884E-015,9.299999999999997));
#130=CARTESIAN_POINT('',(-5.500000000000000,-10.899999999999999,10.899999999999995));
#131=CARTESIAN_POINT('',(-4.699999999999999,-10.899999999999999,10.899999999999995));
#132=CARTESIAN_POINT('',(-4.699999999999999,-10.099999999999998,10.099999999999994));
#133=CARTESIAN_POINT('',(-4.699999999999999,-9.299999999999997,9.299999999999994));
#134=CARTESIAN_POINT('',(-5.500000000000000,-9.299999999999997,9.299999999999994));
#135=CARTESIAN_POINT('',(-5.500000000000000,-10.899999999999999,-1.334821E-015));
#136=CARTESIAN_POINT('',(-4.699999999999999,-10.899999999999999,-1.334821E-015));
#137=CARTESIAN_POINT('',(-4.699999999999999,-10.099999999999998,-1.236852E-015));
#138=CARTESIAN_POINT('',(-4.699999999999999,-9.299999999999997,-1.138884E-015));
#139=CARTESIAN_POINT('',(-5.500000000000000,-9.299999999999997,-1.138884E-015));
#140=CARTESIAN_POINT('',(-5.500000000000000,-10.899999999999995,-10.899999999999999));
#141=CARTESIAN_POINT('',(-4.699999999999999,-10.899999999999995,-10.899999999999999));
#142=CARTESIAN_POINT('',(-4.699999999999999,-10.099999999999994,-10.099999999999998));
#143=CARTESIAN_POINT('',(-4.699999999999999,-9.299999999999994,-9.299999999999997));
#144=CARTESIAN_POINT('',(-5.500000000000000,-9.299999999999994,-9.299999999999997));
#145=CARTESIAN_POINT('',(-5.500000000000000,1.334821E-015,-10.899999999999999));
#146=CARTESIAN_POINT('',(-4.699999999999999,1.334821E-015,-10.899999999999999));
#147=CARTESIAN_POINT('',(-4.699999999999999,1.236852E-015,-10.099999999999998));
#148=CARTESIAN_POINT('',(-4.699999999999999,1.138884E-015,-9.299999999999997));
#149=CARTESIAN_POINT('',(-5.500000000000000,1.138884E-015,-9.299999999999997));
#150=CARTESIAN_POINT('',(-5.500000000000000,10.899999999999999,-10.899999999999995));
#151=CARTESIAN_POINT('',(-4.699999999999999,10.899999999999999,-10.899999999999995));
#152=CARTESIAN_POINT('',(-4.699999999999999,10.099999999999998,-10.099999999999994));
#153=CARTESIAN_POINT('',(-4.699999999999999,9.299999999999997,-9.299999999999994));
#154=CARTESIAN_POINT('',(-5.500000000000000,9.299999999999997,-9.299999999999994));
#155=CARTESIAN_POINT('',(-5.500000000000000,10.899999999999999,1.334821E-015));
#156=CARTESIAN_POINT('',(-4.699999999999999,10.899999999999999,1.334821E-015));
#157=CARTESIAN_POINT('',(-4.699999999999999,10.099999999999998,1.236852E-015));
#158=CARTESIAN_POINT('',(-4.699999999999999,9.299999999999997,1.138884E-015));
#159=CARTESIAN_POINT('',(-5.500000000000000,9.299999999999997,1.138884E-015));
#160=CARTESIAN_POINT('',(-5.500000000000000,10.899999999999995,10.899999999999999));
#161=CARTESIAN_POINT('',(-4.699999999999999,10.899999999999995,10.899999999999999));
#162=CARTESIAN_POINT('',(-4.699999999999999,10.099999999999994,10.099999999999998));
#163=CARTESIAN_POINT('',(-4.699999999999999,9.299999999999994,9.299999999999997));
#164=CARTESIAN_POINT('',(-5.500000000000000,9.299999999999994,9.299999999999997));
#165=CARTESIAN_POINT('',(-5.500000000000000,-1.334821E-015,10.899999999999999));
#166=CARTESIAN_POINT('',(-4.699999999999999,-1.334821E-015,10.899999999999999));
#167=CARTESIAN_POINT('',(-4.699999999999999,-1.236852E-015,10.099999999999998));
#168=CARTESIAN_POINT('',(-4.699999999999999,-1.138884E-015,9.299999999999997));
#169=CARTESIAN_POINT('',(-5.500000000000000,-1.138884E-015,9.299999999999997));
#177=(BOUNDED_SURFACE()B_SPLINE_SURFACE(2,2,((#125,#130,#135,#140,#145,#150,#155,#160,#165),(#126,#131,#136,#141,#146,#151,#156,#161,#166),(#127,#132,#137,#142,#147,#152,#157,#162,#167),(#128,#133,#138,#143,#148,#153,#158,#163,#168),(#129,#134,#139,#144,#149,#154,#159,#164,#169)),.UNSPECIFIED.,.F.,.T.,.U.)B_SPLINE_SURFACE_WITH_KNOTS((3,2,3),(3,2,2,2,3),(0.0,1.570796326794897,3.141592653589793),(0.0,1.570796326794897,3.141592653589793,4.712388980384690,6.283185307179586),.UNSPECIFIED.)GEOMETRIC_REPRESENTATION_ITEM()RATIONAL_B_SPLINE_SURFACE(((1.0,0.707106781186548,1.0,0.707106781186548,1.0,0.707106781186548,1.0,0.707106781186548,1.0),(0.707106781186549,0.500000000000001,0.707106781186549,0.500000000000001,0.707106781186549,0.500000000000001,0.707106781186549,0.500000000000001,0.707106781186549),(1.0,0.707106781186548,1.0,0.707106781186548,1.0,0.707106781186548,1.0,0.707106781186548,1.0),(0.707106781186549,0.500000000000001,0.707106781186549,0.500000000000001,0.707106781186549,0.500000000000001,0.707106781186549,0.500000000000001,0.707106781186549),(1.0,0.707106781186548,1.0,0.707106781186548,1.0,0.707106781186548,1.0,0.707106781186548,1.0)))REPRESENTATION_ITEM('')SURFACE());
#178=CARTESIAN_POINT('',(-5.500000000000000,10.899999999999999,0.0));
#179=VERTEX_POINT('',#178);
#180=CARTESIAN_POINT('',(-5.500000000000000,0.0,0.0));
#181=DIRECTION('',(1.0,0.0,0.0));
#182=DIRECTION('',(0.0,1.0,0.0));
#183=AXIS2_PLACEMENT_3D('',#180,#181,#182);
#184=CIRCLE('',#183,10.899999999999999);
#185=EDGE_CURVE('',#179,#179,#184,.T.);
#186=ORIENTED_EDGE('',*,*,#185,.F.);
#187=EDGE_LOOP('',(#186));
#188=FACE_OUTER_BOUND('',#187,.T.);
#189=ORIENTED_EDGE('',*,*,#117,.T.);
#190=EDGE_LOOP('',(#189));
#191=FACE_BOUND('',#190,.T.);
#192=ADVANCED_FACE('',(#188,#191),#177,.T.);
#193=CARTESIAN_POINT('',(-6.125000000000000,0.0,0.0));
#194=DIRECTION('',(1.0,0.0,0.0));
#195=DIRECTION('',(0.0,1.0,0.0));
#196=AXIS2_PLACEMENT_3D('',#193,#194,#195);
#197=CYLINDRICAL_SURFACE('',#196,10.899999999999999);
#198=CARTESIAN_POINT('',(-6.749999999999999,10.899999999999999,0.0));
#199=VERTEX_POINT('',#198);
#200=CARTESIAN_POINT('',(-6.749999999999999,0.0,0.0));
#201=DIRECTION('',(1.0,0.0,0.0));
#202=DIRECTION('',(0.0,1.0,0.0));
#203=AXIS2_PLACEMENT_3D('',#200,#201,#202);
#204=CIRCLE('',#203,10.899999999999999);
#205=EDGE_CURVE('',#199,#199,#204,.T.);
#206=ORIENTED_EDGE('',*,*,#205,.F.);
#207=EDGE_LOOP('',(#206));
#208=FACE_OUTER_BOUND('',#207,.T.);
#209=ORIENTED_EDGE('',*,*,#185,.T.);
#210=EDGE_LOOP('',(#209));
#211=FACE_BOUND('',#210,.T.);
#212=ADVANCED_FACE('',(#208,#211),#197,.F.);
#213=CARTESIAN_POINT('',(-6.750000000000002,0.0,0.0));
#214=DIRECTION('',(1.0,0.0,0.0));
#215=DIRECTION('',(0.0,0.0,-1.0));
#216=AXIS2_PLACEMENT_3D('',#213,#214,#215);
#217=TOROIDAL_SURFACE('',#216,11.149999999999995,0.249999999999998);
#218=CARTESIAN_POINT('',(-7.0,11.149999999999999,0.0));
#219=VERTEX_POINT('',#218);
#220=CARTESIAN_POINT('',(-7.0,0.0,0.0));
#221=DIRECTION('',(1.0,0.0,0.0));
#222=DIRECTION('',(0.0,1.0,0.0));
#223=AXIS2_PLACEMENT_3D('',#220,#221,#222);
#224=CIRCLE('',#223,11.149999999999999);
#225=EDGE_CURVE('',#219,#219,#224,.T.);
#226=ORIENTED_EDGE('',*,*,#225,.F.);
#227=EDGE_LOOP('',(#226));
#228=FACE_OUTER_BOUND('',#227,.T.);
#229=ORIENTED_EDGE('',*,*,#205,.T.);
#230=EDGE_LOOP('',(#229));
#231=FACE_BOUND('',#230,.T.);
#232=ADVANCED_FACE('',(#228,#231),#217,.T.);
#233=CARTESIAN_POINT('',(-7.0,11.824999999999996,0.0));
#234=DIRECTION('',(-1.0,0.0,0.0));
#235=DIRECTION('',(0.0,0.0,1.0));
#236=AXIS2_PLACEMENT_3D('',#233,#234,#235);
#237=PLANE('',#236);
#238=CARTESIAN_POINT('',(-7.0,12.499999999999998,0.0));
#239=VERTEX_POINT('',#238);
#240=CARTESIAN_POINT('',(-7.0,0.0,0.0));
#241=DIRECTION('',(1.0,0.0,0.0));
#242=DIRECTION('',(0.0,1.0,0.0));
#243=AXIS2_PLACEMENT_3D('',#240,#241,#242);
#244=CIRCLE('',#243,12.499999999999998);
#245=EDGE_CURVE('',#239,#239,#244,.T.);
#246=ORIENTED_EDGE('',*,*,#245,.F.);
#247=EDGE_LOOP('',(#246));
#248=FACE_OUTER_BOUND('',#247,.T.);
#249=ORIENTED_EDGE('',*,*,#225,.T.);
#250=EDGE_LOOP('',(#249));
#251=FACE_BOUND('',#250,.T.);
#252=ADVANCED_FACE('',(#248,#251),#237,.T.);
#253=CARTESIAN_POINT('',(-5.480083015283883,0.0,0.0));
#254=DIRECTION('',(1.0,0.0,0.0));
#255=DIRECTION('',(0.0,1.0,0.0));
#256=AXIS2_PLACEMENT_3D('',#253,#254,#255);
#257=CYLINDRICAL_SURFACE('',#256,12.499999999999996);
#258=CARTESIAN_POINT('',(-3.960166030567765,12.499999999999996,0.0));
#259=VERTEX_POINT('',#258);
#260=CARTESIAN_POINT('',(-3.960166030567765,0.0,0.0));
#261=DIRECTION('',(1.0,0.0,0.0));
#262=DIRECTION('',(0.0,1.0,0.0));
#263=AXIS2_PLACEMENT_3D('',#260,#261,#262);
#264=CIRCLE('',#263,12.499999999999996);
#265=EDGE_CURVE('',#259,#259,#264,.T.);
#266=ORIENTED_EDGE('',*,*,#265,.F.);
#267=EDGE_LOOP('',(#266));
#268=FACE_OUTER_BOUND('',#267,.T.);
#269=ORIENTED_EDGE('',*,*,#245,.T.);
#270=EDGE_LOOP('',(#269));
#271=FACE_BOUND('',#270,.T.);
#272=ADVANCED_FACE('',(#268,#271),#257,.T.);
#273=CARTESIAN_POINT('',(-3.960166030567767,0.0,0.0));
#274=DIRECTION('',(1.0,0.0,0.0));
#275=DIRECTION('',(0.0,0.0,-1.0));
#276=AXIS2_PLACEMENT_3D('',#273,#274,#275);
#277=TOROIDAL_SURFACE('',#276,11.699999999999996,0.800000000000001);
#278=CARTESIAN_POINT('',(-3.208411933939039,11.973616114660530,0.0));
#279=VERTEX_POINT('',#278);
#280=CARTESIAN_POINT('',(-3.208411933939039,0.0,0.0));
#281=DIRECTION('',(1.0,0.0,0.0));
#282=DIRECTION('',(0.0,1.0,0.0));
#283=AXIS2_PLACEMENT_3D('',#280,#281,#282);
#284=CIRCLE('',#283,11.973616114660530);
#285=EDGE_CURVE('',#279,#279,#284,.T.);
#286=ORIENTED_EDGE('',*,*,#285,.F.);
#287=EDGE_LOOP('',(#286));
#288=FACE_OUTER_BOUND('',#287,.T.);
#289=ORIENTED_EDGE('',*,*,#265,.T.);
#290=EDGE_LOOP('',(#289));
#291=FACE_BOUND('',#290,.T.);
#292=ADVANCED_FACE('',(#288,#291),#277,.T.);
#293=CARTESIAN_POINT('',(-1.664513346183612,0.0,0.0));
#294=DIRECTION('',(-1.0,0.0,0.0));
#295=DIRECTION('',(0.0,1.0,0.0));
#296=AXIS2_PLACEMENT_3D('',#293,#294,#295);
#297=CONICAL_SURFACE('',#296,7.731789606874621,69.999999999999972);
#298=CARTESIAN_POINT('',(-0.120614758428183,3.489963099088711,0.0));
#299=VERTEX_POINT('',#298);
#300=CARTESIAN_POINT('',(-0.120614758428184,0.0,0.0));
#301=DIRECTION('',(1.0,0.0,0.0));
#302=DIRECTION('',(0.0,1.0,0.0));
#303=AXIS2_PLACEMENT_3D('',#300,#301,#302);
#304=CIRCLE('',#303,3.489963099088711);
#305=EDGE_CURVE('',#299,#299,#304,.T.);
#306=ORIENTED_EDGE('',*,*,#305,.F.);
#307=EDGE_LOOP('',(#306));
#308=FACE_OUTER_BOUND('',#307,.T.);
#309=ORIENTED_EDGE('',*,*,#285,.T.);
#310=EDGE_LOOP('',(#309));
#311=FACE_BOUND('',#310,.T.);
#312=ADVANCED_FACE('',(#308,#311),#297,.T.);
#313=CARTESIAN_POINT('',(-2.000000000000004,0.0,0.0));
#314=DIRECTION('',(1.0,0.0,0.0));
#315=DIRECTION('',(0.0,0.0,-1.0));
#316=AXIS2_PLACEMENT_3D('',#313,#314,#315);
#317=TOROIDAL_SURFACE('',#316,2.805922812437371,2.000000000000004);
#318=CARTESIAN_POINT('',(0.0,2.805922812437371,0.0));
#319=VERTEX_POINT('',#318);
#320=CARTESIAN_POINT('',(0.0,0.0,0.0));
#321=DIRECTION('',(1.0,0.0,0.0));
#322=DIRECTION('',(0.0,1.0,0.0));
#323=AXIS2_PLACEMENT_3D('',#320,#321,#322);
#324=CIRCLE('',#323,2.805922812437371);
#325=EDGE_CURVE('',#319,#319,#324,.T.);
#326=ORIENTED_EDGE('',*,*,#325,.F.);
#327=EDGE_LOOP('',(#326));
#328=FACE_OUTER_BOUND('',#327,.T.);
#329=ORIENTED_EDGE('',*,*,#305,.T.);
#330=EDGE_LOOP('',(#329));
#331=FACE_BOUND('',#330,.T.);
#332=ADVANCED_FACE('',(#328,#331),#317,.T.);
#333=CARTESIAN_POINT('',(0.0,1.402961406218686,0.0));
#334=DIRECTION('',(1.0,0.0,0.0));
#335=DIRECTION('',(0.0,0.0,-1.0));
#336=AXIS2_PLACEMENT_3D('',#333,#334,#335);
#337=PLANE('',#336);
#338=ORIENTED_EDGE('',*,*,#325,.T.);
#339=EDGE_LOOP('',(#338));
#340=FACE_OUTER_BOUND('',#339,.T.);
#341=ADVANCED_FACE('',(#340),#337,.T.);
#342=CLOSED_SHELL('',(#84,#104,#124,#192,#212,#232,#252,#272,#292,#312,#332,#341));
#343=MANIFOLD_SOLID_BREP('',#342);
#344=COLOUR_RGB('Metall - Stahl',0.639216005802155,0.639216005802155,0.686275005340576);
#345=FILL_AREA_STYLE_COLOUR('Metall - Stahl',#344);
#346=FILL_AREA_STYLE('Metall - Stahl',(#345));
#347=SURFACE_STYLE_FILL_AREA(#346);
#348=SURFACE_SIDE_STYLE('Metall - Stahl',(#347));
#349=SURFACE_STYLE_USAGE(.BOTH.,#348);
#350=PRESENTATION_STYLE_ASSIGNMENT((#349));
#351=STYLED_ITEM('',(#350),#343);
#352=MECHANICAL_DESIGN_GEOMETRIC_PRESENTATION_REPRESENTATION('',(#351),#36);
#353=ADVANCED_BREP_SHAPE_REPRESENTATION('ABSR',(#343),#36);
#354=SHAPE_REPRESENTATION_RELATIONSHIP('SRR','None',#353,#41);
ENDSEC;
END-ISO-10303-21;
