ISO-10303-21;
HEADER;
/* Generated by software containing ST-Developer
 * from STEP Tools, Inc. (www.steptools.com) 
 */

FILE_DESCRIPTION(
/* description */ (''),
/* implementation_level */ '2;1');

FILE_NAME(
/* name */ 
'H:\\UHP\\!!! \X2\C11CBC84\X0\ \X2\D3F4B354\X0\ \X2\C815B9AC\X0\ \X2\C9C4D589\X0\ 
\X2\C911\X0\ !!!\\TEST\\8. \X2\AC1CC778BCC4\X0\ \X2\D3F4B354\X0\\\8. \X2\CD5CBCD1C8FC\X0\ 
\X2\C0ACC6D0\X0\\\\X2\C5C5BB34D611C870C804\X0\ 3D\\STEP\\SM4MN.stp',
/* time_stamp */ '2025-03-10T14:18:07+09:00',
/* author */ ('user'),
/* organization */ (''),
/* preprocessor_version */ 'ST-DEVELOPER v20',
/* originating_system */ 'Autodesk Inventor 2022',
/* authorisation */ '');

FILE_SCHEMA (('AUTOMOTIVE_DESIGN { 1 0 10303 214 3 1 1 }'));
ENDSEC;

DATA;
#10=MECHANICAL_DESIGN_GEOMETRIC_PRESENTATION_REPRESENTATION('',(#13),#558);
#11=SHAPE_REPRESENTATION_RELATIONSHIP('SRR','None',#565,#12);
#12=ADVANCED_BREP_SHAPE_REPRESENTATION('',(#14),#557);
#13=STYLED_ITEM('',(#574),#14);
#14=MANIFOLD_SOLID_BREP('\X2\C194B9ACB4DC\X0\1',#302);
#15=(
BOUNDED_CURVE()
B_SPLINE_CURVE(2,(#465,#466,#467),.UNSPECIFIED.,.F.,.F.)
B_SPLINE_CURVE_WITH_KNOTS((3,3),(0.,0.920349895341766),.UNSPECIFIED.)
CURVE()
GEOMETRIC_REPRESENTATION_ITEM()
RATIONAL_B_SPLINE_CURVE((1.,1.15470053837925,1.))
REPRESENTATION_ITEM('')
);
#16=(
BOUNDED_CURVE()
B_SPLINE_CURVE(2,(#469,#470,#471),.UNSPECIFIED.,.F.,.F.)
B_SPLINE_CURVE_WITH_KNOTS((3,3),(0.,0.920349895341766),.UNSPECIFIED.)
CURVE()
GEOMETRIC_REPRESENTATION_ITEM()
RATIONAL_B_SPLINE_CURVE((1.,1.15470053837925,1.))
REPRESENTATION_ITEM('')
);
#17=(
BOUNDED_CURVE()
B_SPLINE_CURVE(2,(#473,#474,#475),.UNSPECIFIED.,.F.,.F.)
B_SPLINE_CURVE_WITH_KNOTS((3,3),(0.,0.920349895341766),.UNSPECIFIED.)
CURVE()
GEOMETRIC_REPRESENTATION_ITEM()
RATIONAL_B_SPLINE_CURVE((1.,1.15470053837925,1.))
REPRESENTATION_ITEM('')
);
#18=(
BOUNDED_CURVE()
B_SPLINE_CURVE(2,(#477,#478,#479),.UNSPECIFIED.,.F.,.F.)
B_SPLINE_CURVE_WITH_KNOTS((3,3),(0.,0.920349895341765),.UNSPECIFIED.)
CURVE()
GEOMETRIC_REPRESENTATION_ITEM()
RATIONAL_B_SPLINE_CURVE((1.,1.15470053837925,1.))
REPRESENTATION_ITEM('')
);
#19=(
BOUNDED_CURVE()
B_SPLINE_CURVE(2,(#481,#482,#483),.UNSPECIFIED.,.F.,.F.)
B_SPLINE_CURVE_WITH_KNOTS((3,3),(0.,0.920349895341766),.UNSPECIFIED.)
CURVE()
GEOMETRIC_REPRESENTATION_ITEM()
RATIONAL_B_SPLINE_CURVE((1.,1.15470053837925,1.))
REPRESENTATION_ITEM('')
);
#20=(
BOUNDED_CURVE()
B_SPLINE_CURVE(2,(#484,#485,#486),.UNSPECIFIED.,.F.,.F.)
B_SPLINE_CURVE_WITH_KNOTS((3,3),(0.,0.920349895341765),.UNSPECIFIED.)
CURVE()
GEOMETRIC_REPRESENTATION_ITEM()
RATIONAL_B_SPLINE_CURVE((1.,1.15470053837925,1.))
REPRESENTATION_ITEM('')
);
#21=(
BOUNDED_CURVE()
B_SPLINE_CURVE(2,(#500,#501,#502),.UNSPECIFIED.,.F.,.F.)
B_SPLINE_CURVE_WITH_KNOTS((3,3),(0.,0.920349895341766),.UNSPECIFIED.)
CURVE()
GEOMETRIC_REPRESENTATION_ITEM()
RATIONAL_B_SPLINE_CURVE((1.,1.15470053837925,1.))
REPRESENTATION_ITEM('')
);
#22=(
BOUNDED_CURVE()
B_SPLINE_CURVE(2,(#504,#505,#506),.UNSPECIFIED.,.F.,.F.)
B_SPLINE_CURVE_WITH_KNOTS((3,3),(0.,0.920349895341766),.UNSPECIFIED.)
CURVE()
GEOMETRIC_REPRESENTATION_ITEM()
RATIONAL_B_SPLINE_CURVE((1.,1.15470053837925,1.))
REPRESENTATION_ITEM('')
);
#23=(
BOUNDED_CURVE()
B_SPLINE_CURVE(2,(#511,#512,#513),.UNSPECIFIED.,.F.,.F.)
B_SPLINE_CURVE_WITH_KNOTS((3,3),(0.,0.920349895341764),.UNSPECIFIED.)
CURVE()
GEOMETRIC_REPRESENTATION_ITEM()
RATIONAL_B_SPLINE_CURVE((1.,1.15470053837925,1.))
REPRESENTATION_ITEM('')
);
#24=(
BOUNDED_CURVE()
B_SPLINE_CURVE(2,(#515,#516,#517),.UNSPECIFIED.,.F.,.F.)
B_SPLINE_CURVE_WITH_KNOTS((3,3),(0.,0.920349895341766),.UNSPECIFIED.)
CURVE()
GEOMETRIC_REPRESENTATION_ITEM()
RATIONAL_B_SPLINE_CURVE((1.,1.15470053837925,1.))
REPRESENTATION_ITEM('')
);
#25=(
BOUNDED_CURVE()
B_SPLINE_CURVE(2,(#519,#520,#521),.UNSPECIFIED.,.F.,.F.)
B_SPLINE_CURVE_WITH_KNOTS((3,3),(0.,0.920349895341765),.UNSPECIFIED.)
CURVE()
GEOMETRIC_REPRESENTATION_ITEM()
RATIONAL_B_SPLINE_CURVE((1.,1.15470053837925,1.))
REPRESENTATION_ITEM('')
);
#26=(
BOUNDED_CURVE()
B_SPLINE_CURVE(2,(#522,#523,#524),.UNSPECIFIED.,.F.,.F.)
B_SPLINE_CURVE_WITH_KNOTS((3,3),(0.,0.920349895341765),.UNSPECIFIED.)
CURVE()
GEOMETRIC_REPRESENTATION_ITEM()
RATIONAL_B_SPLINE_CURVE((1.,1.15470053837925,1.))
REPRESENTATION_ITEM('')
);
#27=CONICAL_SURFACE('',#334,8.43993464005752,1.30899693899575);
#28=CONICAL_SURFACE('',#336,6.625,0.785398163397448);
#29=CONICAL_SURFACE('',#341,8.43993464005752,1.30899693899575);
#30=CONICAL_SURFACE('',#343,6.625,0.78539816339745);
#31=CONICAL_SURFACE('',#346,5.775,0.785398163397449);
#32=FACE_BOUND('',#96,.T.);
#33=FACE_BOUND('',#111,.T.);
#34=FACE_BOUND('',#113,.T.);
#35=PLANE('',#332);
#36=PLANE('',#348);
#37=PLANE('',#349);
#38=PLANE('',#350);
#39=PLANE('',#351);
#40=PLANE('',#355);
#41=PLANE('',#356);
#42=PLANE('',#357);
#43=PLANE('',#358);
#44=LINE('',#454,#58);
#45=LINE('',#463,#59);
#46=LINE('',#492,#60);
#47=LINE('',#508,#61);
#48=LINE('',#527,#62);
#49=LINE('',#533,#63);
#50=LINE('',#536,#64);
#51=LINE('',#537,#65);
#52=LINE('',#539,#66);
#53=LINE('',#541,#67);
#54=LINE('',#543,#68);
#55=LINE('',#545,#69);
#56=LINE('',#548,#70);
#57=LINE('',#551,#71);
#58=VECTOR('',#373,4.55);
#59=VECTOR('',#384,8.43993464005752);
#60=VECTOR('',#389,6.625);
#61=VECTOR('',#398,8.43993464005753);
#62=VECTOR('',#403,6.625);
#63=VECTOR('',#410,5.775);
#64=VECTOR('',#415,10.);
#65=VECTOR('',#416,10.);
#66=VECTOR('',#419,10.);
#67=VECTOR('',#422,10.);
#68=VECTOR('',#425,10.);
#69=VECTOR('',#428,7.1);
#70=VECTOR('',#431,6.15);
#71=VECTOR('',#436,10.);
#72=CYLINDRICAL_SURFACE('',#330,4.55);
#73=CYLINDRICAL_SURFACE('',#352,7.1);
#74=CYLINDRICAL_SURFACE('',#353,6.15);
#75=FACE_OUTER_BOUND('',#93,.T.);
#76=FACE_OUTER_BOUND('',#94,.T.);
#77=FACE_OUTER_BOUND('',#95,.T.);
#78=FACE_OUTER_BOUND('',#97,.T.);
#79=FACE_OUTER_BOUND('',#98,.T.);
#80=FACE_OUTER_BOUND('',#99,.T.);
#81=FACE_OUTER_BOUND('',#100,.T.);
#82=FACE_OUTER_BOUND('',#101,.T.);
#83=FACE_OUTER_BOUND('',#102,.T.);
#84=FACE_OUTER_BOUND('',#103,.T.);
#85=FACE_OUTER_BOUND('',#104,.T.);
#86=FACE_OUTER_BOUND('',#105,.T.);
#87=FACE_OUTER_BOUND('',#106,.T.);
#88=FACE_OUTER_BOUND('',#107,.T.);
#89=FACE_OUTER_BOUND('',#108,.T.);
#90=FACE_OUTER_BOUND('',#109,.T.);
#91=FACE_OUTER_BOUND('',#110,.T.);
#92=FACE_OUTER_BOUND('',#112,.T.);
#93=EDGE_LOOP('',(#199,#200,#201,#202,#203));
#94=EDGE_LOOP('',(#204,#205,#206,#207,#208));
#95=EDGE_LOOP('',(#209));
#96=EDGE_LOOP('',(#210));
#97=EDGE_LOOP('',(#211,#212,#213,#214,#215,#216,#217,#218,#219));
#98=EDGE_LOOP('',(#220,#221,#222,#223,#224,#225));
#99=EDGE_LOOP('',(#226,#227,#228,#229,#230,#231,#232,#233,#234));
#100=EDGE_LOOP('',(#235,#236,#237,#238,#239));
#101=EDGE_LOOP('',(#240,#241,#242,#243));
#102=EDGE_LOOP('',(#244,#245,#246,#247));
#103=EDGE_LOOP('',(#248,#249,#250,#251));
#104=EDGE_LOOP('',(#252,#253,#254,#255));
#105=EDGE_LOOP('',(#256,#257,#258,#259));
#106=EDGE_LOOP('',(#260,#261,#262,#263,#264,#265));
#107=EDGE_LOOP('',(#266,#267,#268,#269,#270));
#108=EDGE_LOOP('',(#271,#272,#273,#274));
#109=EDGE_LOOP('',(#275,#276,#277,#278));
#110=EDGE_LOOP('',(#279));
#111=EDGE_LOOP('',(#280));
#112=EDGE_LOOP('',(#281));
#113=EDGE_LOOP('',(#282));
#114=CIRCLE('',#326,5.05);
#115=CIRCLE('',#327,0.5);
#116=CIRCLE('',#328,4.55);
#117=CIRCLE('',#329,4.55);
#118=CIRCLE('',#331,4.55);
#119=CIRCLE('',#333,6.15);
#120=CIRCLE('',#335,7.7);
#121=CIRCLE('',#337,7.1);
#122=CIRCLE('',#338,6.15);
#123=CIRCLE('',#339,6.15);
#124=CIRCLE('',#340,7.1);
#125=CIRCLE('',#342,7.7);
#126=CIRCLE('',#344,7.1);
#127=CIRCLE('',#345,7.1);
#128=CIRCLE('',#347,7.);
#129=CIRCLE('',#354,6.15);
#130=VERTEX_POINT('',#445);
#131=VERTEX_POINT('',#447);
#132=VERTEX_POINT('',#449);
#133=VERTEX_POINT('',#453);
#134=VERTEX_POINT('',#457);
#135=VERTEX_POINT('',#460);
#136=VERTEX_POINT('',#462);
#137=VERTEX_POINT('',#464);
#138=VERTEX_POINT('',#468);
#139=VERTEX_POINT('',#472);
#140=VERTEX_POINT('',#476);
#141=VERTEX_POINT('',#480);
#142=VERTEX_POINT('',#488);
#143=VERTEX_POINT('',#489);
#144=VERTEX_POINT('',#491);
#145=VERTEX_POINT('',#493);
#146=VERTEX_POINT('',#498);
#147=VERTEX_POINT('',#499);
#148=VERTEX_POINT('',#503);
#149=VERTEX_POINT('',#507);
#150=VERTEX_POINT('',#510);
#151=VERTEX_POINT('',#514);
#152=VERTEX_POINT('',#518);
#153=VERTEX_POINT('',#526);
#154=VERTEX_POINT('',#528);
#155=VERTEX_POINT('',#532);
#156=VERTEX_POINT('',#547);
#157=EDGE_CURVE('',#130,#130,#114,.T.);
#158=EDGE_CURVE('',#130,#131,#115,.T.);
#159=EDGE_CURVE('',#131,#132,#116,.T.);
#160=EDGE_CURVE('',#132,#131,#117,.T.);
#161=EDGE_CURVE('',#132,#133,#44,.T.);
#162=EDGE_CURVE('',#133,#133,#118,.T.);
#163=EDGE_CURVE('',#134,#134,#119,.T.);
#164=EDGE_CURVE('',#135,#135,#120,.T.);
#165=EDGE_CURVE('',#135,#136,#45,.T.);
#166=EDGE_CURVE('',#137,#136,#15,.T.);
#167=EDGE_CURVE('',#138,#137,#16,.T.);
#168=EDGE_CURVE('',#139,#138,#17,.T.);
#169=EDGE_CURVE('',#140,#139,#18,.T.);
#170=EDGE_CURVE('',#141,#140,#19,.T.);
#171=EDGE_CURVE('',#136,#141,#20,.T.);
#172=EDGE_CURVE('',#142,#143,#121,.T.);
#173=EDGE_CURVE('',#142,#144,#46,.T.);
#174=EDGE_CURVE('',#144,#145,#122,.T.);
#175=EDGE_CURVE('',#145,#144,#123,.T.);
#176=EDGE_CURVE('',#143,#142,#124,.T.);
#177=EDGE_CURVE('',#146,#147,#21,.T.);
#178=EDGE_CURVE('',#148,#146,#22,.T.);
#179=EDGE_CURVE('',#148,#149,#47,.T.);
#180=EDGE_CURVE('',#149,#149,#125,.T.);
#181=EDGE_CURVE('',#150,#148,#23,.T.);
#182=EDGE_CURVE('',#151,#150,#24,.T.);
#183=EDGE_CURVE('',#152,#151,#25,.T.);
#184=EDGE_CURVE('',#147,#152,#26,.T.);
#185=EDGE_CURVE('',#134,#153,#48,.T.);
#186=EDGE_CURVE('',#154,#153,#126,.T.);
#187=EDGE_CURVE('',#153,#154,#127,.T.);
#188=EDGE_CURVE('',#133,#155,#49,.T.);
#189=EDGE_CURVE('',#155,#155,#128,.T.);
#190=EDGE_CURVE('',#152,#139,#50,.T.);
#191=EDGE_CURVE('',#151,#140,#51,.T.);
#192=EDGE_CURVE('',#150,#141,#52,.T.);
#193=EDGE_CURVE('',#147,#138,#53,.T.);
#194=EDGE_CURVE('',#146,#137,#54,.T.);
#195=EDGE_CURVE('',#154,#143,#55,.T.);
#196=EDGE_CURVE('',#145,#156,#56,.T.);
#197=EDGE_CURVE('',#156,#156,#129,.T.);
#198=EDGE_CURVE('',#148,#136,#57,.T.);
#199=ORIENTED_EDGE('',*,*,#157,.T.);
#200=ORIENTED_EDGE('',*,*,#158,.T.);
#201=ORIENTED_EDGE('',*,*,#159,.T.);
#202=ORIENTED_EDGE('',*,*,#160,.T.);
#203=ORIENTED_EDGE('',*,*,#158,.F.);
#204=ORIENTED_EDGE('',*,*,#160,.F.);
#205=ORIENTED_EDGE('',*,*,#161,.T.);
#206=ORIENTED_EDGE('',*,*,#162,.T.);
#207=ORIENTED_EDGE('',*,*,#161,.F.);
#208=ORIENTED_EDGE('',*,*,#159,.F.);
#209=ORIENTED_EDGE('',*,*,#163,.T.);
#210=ORIENTED_EDGE('',*,*,#157,.F.);
#211=ORIENTED_EDGE('',*,*,#164,.F.);
#212=ORIENTED_EDGE('',*,*,#165,.T.);
#213=ORIENTED_EDGE('',*,*,#166,.F.);
#214=ORIENTED_EDGE('',*,*,#167,.F.);
#215=ORIENTED_EDGE('',*,*,#168,.F.);
#216=ORIENTED_EDGE('',*,*,#169,.F.);
#217=ORIENTED_EDGE('',*,*,#170,.F.);
#218=ORIENTED_EDGE('',*,*,#171,.F.);
#219=ORIENTED_EDGE('',*,*,#165,.F.);
#220=ORIENTED_EDGE('',*,*,#172,.F.);
#221=ORIENTED_EDGE('',*,*,#173,.T.);
#222=ORIENTED_EDGE('',*,*,#174,.T.);
#223=ORIENTED_EDGE('',*,*,#175,.T.);
#224=ORIENTED_EDGE('',*,*,#173,.F.);
#225=ORIENTED_EDGE('',*,*,#176,.F.);
#226=ORIENTED_EDGE('',*,*,#177,.F.);
#227=ORIENTED_EDGE('',*,*,#178,.F.);
#228=ORIENTED_EDGE('',*,*,#179,.T.);
#229=ORIENTED_EDGE('',*,*,#180,.F.);
#230=ORIENTED_EDGE('',*,*,#179,.F.);
#231=ORIENTED_EDGE('',*,*,#181,.F.);
#232=ORIENTED_EDGE('',*,*,#182,.F.);
#233=ORIENTED_EDGE('',*,*,#183,.F.);
#234=ORIENTED_EDGE('',*,*,#184,.F.);
#235=ORIENTED_EDGE('',*,*,#163,.F.);
#236=ORIENTED_EDGE('',*,*,#185,.T.);
#237=ORIENTED_EDGE('',*,*,#186,.F.);
#238=ORIENTED_EDGE('',*,*,#187,.F.);
#239=ORIENTED_EDGE('',*,*,#185,.F.);
#240=ORIENTED_EDGE('',*,*,#162,.F.);
#241=ORIENTED_EDGE('',*,*,#188,.T.);
#242=ORIENTED_EDGE('',*,*,#189,.F.);
#243=ORIENTED_EDGE('',*,*,#188,.F.);
#244=ORIENTED_EDGE('',*,*,#169,.T.);
#245=ORIENTED_EDGE('',*,*,#190,.F.);
#246=ORIENTED_EDGE('',*,*,#183,.T.);
#247=ORIENTED_EDGE('',*,*,#191,.T.);
#248=ORIENTED_EDGE('',*,*,#170,.T.);
#249=ORIENTED_EDGE('',*,*,#191,.F.);
#250=ORIENTED_EDGE('',*,*,#182,.T.);
#251=ORIENTED_EDGE('',*,*,#192,.T.);
#252=ORIENTED_EDGE('',*,*,#168,.T.);
#253=ORIENTED_EDGE('',*,*,#193,.F.);
#254=ORIENTED_EDGE('',*,*,#184,.T.);
#255=ORIENTED_EDGE('',*,*,#190,.T.);
#256=ORIENTED_EDGE('',*,*,#167,.T.);
#257=ORIENTED_EDGE('',*,*,#194,.F.);
#258=ORIENTED_EDGE('',*,*,#177,.T.);
#259=ORIENTED_EDGE('',*,*,#193,.T.);
#260=ORIENTED_EDGE('',*,*,#186,.T.);
#261=ORIENTED_EDGE('',*,*,#187,.T.);
#262=ORIENTED_EDGE('',*,*,#195,.T.);
#263=ORIENTED_EDGE('',*,*,#176,.T.);
#264=ORIENTED_EDGE('',*,*,#172,.T.);
#265=ORIENTED_EDGE('',*,*,#195,.F.);
#266=ORIENTED_EDGE('',*,*,#174,.F.);
#267=ORIENTED_EDGE('',*,*,#175,.F.);
#268=ORIENTED_EDGE('',*,*,#196,.T.);
#269=ORIENTED_EDGE('',*,*,#197,.F.);
#270=ORIENTED_EDGE('',*,*,#196,.F.);
#271=ORIENTED_EDGE('',*,*,#166,.T.);
#272=ORIENTED_EDGE('',*,*,#198,.F.);
#273=ORIENTED_EDGE('',*,*,#178,.T.);
#274=ORIENTED_EDGE('',*,*,#194,.T.);
#275=ORIENTED_EDGE('',*,*,#171,.T.);
#276=ORIENTED_EDGE('',*,*,#192,.F.);
#277=ORIENTED_EDGE('',*,*,#181,.T.);
#278=ORIENTED_EDGE('',*,*,#198,.T.);
#279=ORIENTED_EDGE('',*,*,#164,.T.);
#280=ORIENTED_EDGE('',*,*,#197,.T.);
#281=ORIENTED_EDGE('',*,*,#180,.T.);
#282=ORIENTED_EDGE('',*,*,#189,.T.);
#283=TOROIDAL_SURFACE('',#325,5.05,0.5);
#284=ADVANCED_FACE('',(#75),#283,.T.);
#285=ADVANCED_FACE('',(#76),#72,.F.);
#286=ADVANCED_FACE('',(#77,#32),#35,.T.);
#287=ADVANCED_FACE('',(#78),#27,.T.);
#288=ADVANCED_FACE('',(#79),#28,.T.);
#289=ADVANCED_FACE('',(#80),#29,.T.);
#290=ADVANCED_FACE('',(#81),#30,.T.);
#291=ADVANCED_FACE('',(#82),#31,.F.);
#292=ADVANCED_FACE('',(#83),#36,.T.);
#293=ADVANCED_FACE('',(#84),#37,.T.);
#294=ADVANCED_FACE('',(#85),#38,.T.);
#295=ADVANCED_FACE('',(#86),#39,.T.);
#296=ADVANCED_FACE('',(#87),#73,.T.);
#297=ADVANCED_FACE('',(#88),#74,.T.);
#298=ADVANCED_FACE('',(#89),#40,.T.);
#299=ADVANCED_FACE('',(#90),#41,.T.);
#300=ADVANCED_FACE('',(#91,#33),#42,.T.);
#301=ADVANCED_FACE('',(#92,#34),#43,.F.);
#302=CLOSED_SHELL('',(#284,#285,#286,#287,#288,#289,#290,#291,#292,#293,
#294,#295,#296,#297,#298,#299,#300,#301));
#303=DERIVED_UNIT_ELEMENT(#306,1.);
#304=DERIVED_UNIT_ELEMENT(#560,-3.);
#305=DIMENSIONAL_EXPONENTS(1.,0.,0.,0.,0.,0.,0.);
#306=(
CONVERSION_BASED_UNIT('gram',#308)
MASS_UNIT()
NAMED_UNIT(#305)
);
#307=(
MASS_UNIT()
NAMED_UNIT(*)
SI_UNIT(.KILO.,.GRAM.)
);
#308=MASS_MEASURE_WITH_UNIT(MASS_MEASURE(0.001),#307);
#309=DERIVED_UNIT((#303,#304));
#310=MEASURE_REPRESENTATION_ITEM('density measure',
POSITIVE_RATIO_MEASURE(1.),#309);
#311=PROPERTY_DEFINITION_REPRESENTATION(#316,#313);
#312=PROPERTY_DEFINITION_REPRESENTATION(#317,#314);
#313=REPRESENTATION('material name',(#315),#557);
#314=REPRESENTATION('density',(#310),#557);
#315=DESCRIPTIVE_REPRESENTATION_ITEM('\X2\C77CBC18\X0\','\X2\C77CBC18\X0\');
#316=PROPERTY_DEFINITION('material property','material name',#567);
#317=PROPERTY_DEFINITION('material property','density of part',#567);
#318=DATE_TIME_ROLE('creation_date');
#319=APPLIED_DATE_AND_TIME_ASSIGNMENT(#320,#318,(#567));
#320=DATE_AND_TIME(#321,#322);
#321=CALENDAR_DATE(2024,12,4);
#322=LOCAL_TIME(0,0,0.,#323);
#323=COORDINATED_UNIVERSAL_TIME_OFFSET(0,0,.BEHIND.);
#324=AXIS2_PLACEMENT_3D('placement',#443,#359,#360);
#325=AXIS2_PLACEMENT_3D('',#444,#361,#362);
#326=AXIS2_PLACEMENT_3D('',#446,#363,#364);
#327=AXIS2_PLACEMENT_3D('',#448,#365,#366);
#328=AXIS2_PLACEMENT_3D('',#450,#367,#368);
#329=AXIS2_PLACEMENT_3D('',#451,#369,#370);
#330=AXIS2_PLACEMENT_3D('',#452,#371,#372);
#331=AXIS2_PLACEMENT_3D('',#455,#374,#375);
#332=AXIS2_PLACEMENT_3D('',#456,#376,#377);
#333=AXIS2_PLACEMENT_3D('',#458,#378,#379);
#334=AXIS2_PLACEMENT_3D('',#459,#380,#381);
#335=AXIS2_PLACEMENT_3D('',#461,#382,#383);
#336=AXIS2_PLACEMENT_3D('',#487,#385,#386);
#337=AXIS2_PLACEMENT_3D('',#490,#387,#388);
#338=AXIS2_PLACEMENT_3D('',#494,#390,#391);
#339=AXIS2_PLACEMENT_3D('',#495,#392,#393);
#340=AXIS2_PLACEMENT_3D('',#496,#394,#395);
#341=AXIS2_PLACEMENT_3D('',#497,#396,#397);
#342=AXIS2_PLACEMENT_3D('',#509,#399,#400);
#343=AXIS2_PLACEMENT_3D('',#525,#401,#402);
#344=AXIS2_PLACEMENT_3D('',#529,#404,#405);
#345=AXIS2_PLACEMENT_3D('',#530,#406,#407);
#346=AXIS2_PLACEMENT_3D('',#531,#408,#409);
#347=AXIS2_PLACEMENT_3D('',#534,#411,#412);
#348=AXIS2_PLACEMENT_3D('',#535,#413,#414);
#349=AXIS2_PLACEMENT_3D('',#538,#417,#418);
#350=AXIS2_PLACEMENT_3D('',#540,#420,#421);
#351=AXIS2_PLACEMENT_3D('',#542,#423,#424);
#352=AXIS2_PLACEMENT_3D('',#544,#426,#427);
#353=AXIS2_PLACEMENT_3D('',#546,#429,#430);
#354=AXIS2_PLACEMENT_3D('',#549,#432,#433);
#355=AXIS2_PLACEMENT_3D('',#550,#434,#435);
#356=AXIS2_PLACEMENT_3D('',#552,#437,#438);
#357=AXIS2_PLACEMENT_3D('',#553,#439,#440);
#358=AXIS2_PLACEMENT_3D('',#554,#441,#442);
#359=DIRECTION('axis',(0.,0.,1.));
#360=DIRECTION('refdir',(1.,0.,0.));
#361=DIRECTION('center_axis',(0.,0.,-1.));
#362=DIRECTION('ref_axis',(-1.,0.,0.));
#363=DIRECTION('center_axis',(0.,0.,1.));
#364=DIRECTION('ref_axis',(1.22464679914735E-16,-1.,0.));
#365=DIRECTION('center_axis',(-1.22464679914735E-16,-1.,0.));
#366=DIRECTION('ref_axis',(1.,-1.22464679914735E-16,0.));
#367=DIRECTION('center_axis',(0.,0.,-1.));
#368=DIRECTION('ref_axis',(1.22464679914735E-16,-1.,0.));
#369=DIRECTION('center_axis',(0.,0.,-1.));
#370=DIRECTION('ref_axis',(1.22464679914735E-16,-1.,0.));
#371=DIRECTION('center_axis',(0.,0.,-1.));
#372=DIRECTION('ref_axis',(0.,1.,0.));
#373=DIRECTION('',(0.,0.,-1.));
#374=DIRECTION('center_axis',(0.,0.,-1.));
#375=DIRECTION('ref_axis',(1.,0.,0.));
#376=DIRECTION('center_axis',(0.,0.,1.));
#377=DIRECTION('ref_axis',(1.,0.,0.));
#378=DIRECTION('center_axis',(0.,0.,1.));
#379=DIRECTION('ref_axis',(0.,1.,0.));
#380=DIRECTION('center_axis',(0.,0.,-1.));
#381=DIRECTION('ref_axis',(0.,1.,0.));
#382=DIRECTION('center_axis',(0.,0.,1.));
#383=DIRECTION('ref_axis',(0.,1.,0.));
#384=DIRECTION('',(-1.18291797137867E-16,-0.965925826289069,-0.25881904510252));
#385=DIRECTION('center_axis',(0.,0.,1.));
#386=DIRECTION('ref_axis',(0.,1.,0.));
#387=DIRECTION('center_axis',(0.,0.,1.));
#388=DIRECTION('ref_axis',(1.,0.,0.));
#389=DIRECTION('',(8.65956056235493E-17,0.707106781186547,-0.707106781186548));
#390=DIRECTION('center_axis',(0.,0.,1.));
#391=DIRECTION('ref_axis',(1.,0.,0.));
#392=DIRECTION('center_axis',(0.,0.,1.));
#393=DIRECTION('ref_axis',(1.,0.,0.));
#394=DIRECTION('center_axis',(0.,0.,1.));
#395=DIRECTION('ref_axis',(1.,0.,0.));
#396=DIRECTION('center_axis',(0.,0.,1.));
#397=DIRECTION('ref_axis',(0.,1.,0.));
#398=DIRECTION('',(1.18291797137867E-16,0.965925826289068,-0.258819045102521));
#399=DIRECTION('center_axis',(0.,0.,-1.));
#400=DIRECTION('ref_axis',(0.,1.,0.));
#401=DIRECTION('center_axis',(0.,0.,-1.));
#402=DIRECTION('ref_axis',(0.,1.,0.));
#403=DIRECTION('',(-8.65956056235494E-17,-0.707106781186548,-0.707106781186547));
#404=DIRECTION('center_axis',(0.,0.,-1.));
#405=DIRECTION('ref_axis',(1.,0.,0.));
#406=DIRECTION('center_axis',(0.,0.,-1.));
#407=DIRECTION('ref_axis',(1.,0.,0.));
#408=DIRECTION('center_axis',(0.,0.,-1.));
#409=DIRECTION('ref_axis',(0.,1.,0.));
#410=DIRECTION('',(-8.65956056235493E-17,-0.707106781186548,-0.707106781186547));
#411=DIRECTION('center_axis',(0.,0.,1.));
#412=DIRECTION('ref_axis',(0.,1.,0.));
#413=DIRECTION('center_axis',(-0.5,0.866025403784439,0.));
#414=DIRECTION('ref_axis',(-0.866025403784439,-0.5,0.));
#415=DIRECTION('',(0.,0.,1.));
#416=DIRECTION('',(0.,0.,1.));
#417=DIRECTION('center_axis',(-1.,-1.20941049458086E-16,0.));
#418=DIRECTION('ref_axis',(1.20941049458086E-16,-1.,0.));
#419=DIRECTION('',(0.,0.,1.));
#420=DIRECTION('center_axis',(0.5,0.866025403784439,0.));
#421=DIRECTION('ref_axis',(-0.866025403784439,0.5,0.));
#422=DIRECTION('',(0.,0.,1.));
#423=DIRECTION('center_axis',(1.,2.41882098916171E-16,0.));
#424=DIRECTION('ref_axis',(-2.41882098916171E-16,1.,0.));
#425=DIRECTION('',(0.,0.,1.));
#426=DIRECTION('center_axis',(0.,0.,1.));
#427=DIRECTION('ref_axis',(1.,0.,0.));
#428=DIRECTION('',(0.,0.,-1.));
#429=DIRECTION('center_axis',(0.,0.,1.));
#430=DIRECTION('ref_axis',(1.,0.,0.));
#431=DIRECTION('',(0.,0.,-1.));
#432=DIRECTION('center_axis',(0.,0.,-1.));
#433=DIRECTION('ref_axis',(1.,0.,0.));
#434=DIRECTION('center_axis',(0.5,-0.866025403784439,0.));
#435=DIRECTION('ref_axis',(0.866025403784439,0.5,0.));
#436=DIRECTION('',(0.,0.,1.));
#437=DIRECTION('center_axis',(-0.5,-0.866025403784439,0.));
#438=DIRECTION('ref_axis',(0.866025403784439,-0.5,0.));
#439=DIRECTION('center_axis',(0.,0.,1.));
#440=DIRECTION('ref_axis',(1.,0.,0.));
#441=DIRECTION('center_axis',(0.,0.,1.));
#442=DIRECTION('ref_axis',(1.,0.,0.));
#443=CARTESIAN_POINT('',(0.,0.,0.));
#444=CARTESIAN_POINT('Origin',(0.,0.,17.5));
#445=CARTESIAN_POINT('',(5.05,-6.18446633569413E-16,18.));
#446=CARTESIAN_POINT('Origin',(0.,0.,18.));
#447=CARTESIAN_POINT('',(4.55,-5.57214293612046E-16,17.5));
#448=CARTESIAN_POINT('Origin',(5.05,-6.18446633569413E-16,17.5));
#449=CARTESIAN_POINT('',(-5.57214293612046E-16,-4.55,17.5));
#450=CARTESIAN_POINT('Origin',(0.,0.,17.5));
#451=CARTESIAN_POINT('Origin',(0.,0.,17.5));
#452=CARTESIAN_POINT('Origin',(0.,0.,10.225));
#453=CARTESIAN_POINT('',(-5.57214293612046E-16,-4.55,2.45));
#454=CARTESIAN_POINT('',(-5.57214293612046E-16,-4.55,10.225));
#455=CARTESIAN_POINT('Origin',(0.,0.,2.45));
#456=CARTESIAN_POINT('Origin',(0.,0.,18.));
#457=CARTESIAN_POINT('',(-7.53157781475623E-16,-6.15,18.));
#458=CARTESIAN_POINT('Origin',(0.,0.,18.));
#459=CARTESIAN_POINT('Origin',(0.,0.,6.80173511074477));
#460=CARTESIAN_POINT('',(-9.42978035343462E-16,-7.7,7.));
#461=CARTESIAN_POINT('Origin',(0.,0.,7.));
#462=CARTESIAN_POINT('',(1.11022302462516E-15,-9.17986928011505,6.60347022148955));
#463=CARTESIAN_POINT('',(-1.03359389419593E-15,-8.43993464005752,6.80173511074477));
#464=CARTESIAN_POINT('',(7.95,-4.58993464005752,6.60347022148955));
#465=CARTESIAN_POINT('Ctrl Pts',(7.95,-4.58993464005752,6.60347022148955));
#466=CARTESIAN_POINT('Ctrl Pts',(3.975,-6.88490196008629,7.21840486154707));
#467=CARTESIAN_POINT('Ctrl Pts',(-1.81133551487374E-15,-9.17986928011505,
6.60347022148955));
#468=CARTESIAN_POINT('',(7.95,4.58993464005753,6.60347022148955));
#469=CARTESIAN_POINT('Ctrl Pts',(7.95,4.58993464005753,6.60347022148955));
#470=CARTESIAN_POINT('Ctrl Pts',(7.95,1.94289029309402E-15,7.21840486154707));
#471=CARTESIAN_POINT('Ctrl Pts',(7.95,-4.58993464005753,6.60347022148955));
#472=CARTESIAN_POINT('',(0.,9.17986928011505,6.60347022148955));
#473=CARTESIAN_POINT('Ctrl Pts',(-6.64156355453706E-15,9.17986928011505,
6.60347022148955));
#474=CARTESIAN_POINT('Ctrl Pts',(3.97499999999998,6.8849019600863,7.21840486154707));
#475=CARTESIAN_POINT('Ctrl Pts',(7.95,4.58993464005753,6.60347022148955));
#476=CARTESIAN_POINT('',(-7.95,4.58993464005753,6.60347022148955));
#477=CARTESIAN_POINT('Ctrl Pts',(-7.95,4.58993464005753,6.60347022148955));
#478=CARTESIAN_POINT('Ctrl Pts',(-3.975,6.88490196008629,7.21840486154707));
#479=CARTESIAN_POINT('Ctrl Pts',(-3.62267102974749E-15,9.17986928011505,
6.60347022148955));
#480=CARTESIAN_POINT('',(-7.95,-4.58993464005753,6.60347022148955));
#481=CARTESIAN_POINT('Ctrl Pts',(-7.95,-4.58993464005753,6.60347022148955));
#482=CARTESIAN_POINT('Ctrl Pts',(-7.95,-1.11022302462516E-15,7.21840486154707));
#483=CARTESIAN_POINT('Ctrl Pts',(-7.95,4.58993464005753,6.60347022148955));
#484=CARTESIAN_POINT('Ctrl Pts',(0.,-9.17986928011505,6.60347022148955));
#485=CARTESIAN_POINT('Ctrl Pts',(-3.975,-6.88490196008629,7.21840486154707));
#486=CARTESIAN_POINT('Ctrl Pts',(-7.95,-4.58993464005753,6.60347022148955));
#487=CARTESIAN_POINT('Origin',(0.,0.,10.475));
#488=CARTESIAN_POINT('',(-8.69499227394621E-16,-7.1,10.95));
#489=CARTESIAN_POINT('',(-7.1,-8.69499227394621E-16,10.95));
#490=CARTESIAN_POINT('Origin',(0.,0.,10.95));
#491=CARTESIAN_POINT('',(-7.53157781475622E-16,-6.15,10.));
#492=CARTESIAN_POINT('',(-8.11328504435122E-16,-6.625,10.475));
#493=CARTESIAN_POINT('',(-6.15,-7.53157781475623E-16,10.));
#494=CARTESIAN_POINT('Origin',(0.,0.,10.));
#495=CARTESIAN_POINT('Origin',(0.,0.,10.));
#496=CARTESIAN_POINT('Origin',(0.,0.,10.95));
#497=CARTESIAN_POINT('Origin',(0.,0.,0.198264889255228));
#498=CARTESIAN_POINT('',(7.95,-4.58993464005753,0.396529778510455));
#499=CARTESIAN_POINT('',(7.95,4.58993464005753,0.396529778510455));
#500=CARTESIAN_POINT('Ctrl Pts',(7.95,-4.58993464005753,0.396529778510455));
#501=CARTESIAN_POINT('Ctrl Pts',(7.95,1.94289029309402E-15,-0.218404861547071));
#502=CARTESIAN_POINT('Ctrl Pts',(7.95,4.58993464005753,0.396529778510455));
#503=CARTESIAN_POINT('',(0.,-9.17986928011505,0.396529778510455));
#504=CARTESIAN_POINT('Ctrl Pts',(-1.81133551487374E-15,-9.17986928011505,
0.396529778510456));
#505=CARTESIAN_POINT('Ctrl Pts',(3.975,-6.88490196008629,-0.218404861547071));
#506=CARTESIAN_POINT('Ctrl Pts',(7.95,-4.58993464005752,0.396529778510456));
#507=CARTESIAN_POINT('',(-9.42978035343462E-16,-7.7,-3.46944695195361E-17));
#508=CARTESIAN_POINT('',(-1.03359389419593E-15,-8.43993464005752,0.198264889255228));
#509=CARTESIAN_POINT('Origin',(0.,0.,0.));
#510=CARTESIAN_POINT('',(-7.95,-4.58993464005753,0.396529778510455));
#511=CARTESIAN_POINT('Ctrl Pts',(-7.94999999999999,-4.58993464005753,0.396529778510455));
#512=CARTESIAN_POINT('Ctrl Pts',(-3.975,-6.88490196008629,-0.218404861547069));
#513=CARTESIAN_POINT('Ctrl Pts',(-2.41511401983166E-15,-9.17986928011505,
0.396529778510455));
#514=CARTESIAN_POINT('',(-7.95,4.58993464005753,0.396529778510455));
#515=CARTESIAN_POINT('Ctrl Pts',(-7.95,4.58993464005753,0.396529778510456));
#516=CARTESIAN_POINT('Ctrl Pts',(-7.95,-2.12748249835446E-15,-0.218404861547071));
#517=CARTESIAN_POINT('Ctrl Pts',(-7.95,-4.58993464005753,0.396529778510455));
#518=CARTESIAN_POINT('',(0.,9.17986928011505,0.396529778510455));
#519=CARTESIAN_POINT('Ctrl Pts',(-3.62267102974749E-15,9.17986928011505,
0.396529778510455));
#520=CARTESIAN_POINT('Ctrl Pts',(-3.975,6.88490196008629,-0.21840486154707));
#521=CARTESIAN_POINT('Ctrl Pts',(-7.95,4.58993464005753,0.396529778510455));
#522=CARTESIAN_POINT('Ctrl Pts',(7.95,4.58993464005753,0.396529778510455));
#523=CARTESIAN_POINT('Ctrl Pts',(3.975,6.88490196008629,-0.21840486154707));
#524=CARTESIAN_POINT('Ctrl Pts',(-2.41511401983166E-15,9.17986928011505,
0.396529778510455));
#525=CARTESIAN_POINT('Origin',(0.,0.,17.525));
#526=CARTESIAN_POINT('',(-8.69499227394621E-16,-7.1,17.05));
#527=CARTESIAN_POINT('',(-8.11328504435122E-16,-6.625,17.525));
#528=CARTESIAN_POINT('',(-7.1,-8.69499227394621E-16,17.05));
#529=CARTESIAN_POINT('Origin',(0.,0.,17.05));
#530=CARTESIAN_POINT('Origin',(0.,0.,17.05));
#531=CARTESIAN_POINT('Origin',(0.,0.,1.225));
#532=CARTESIAN_POINT('',(-8.57252759403147E-16,-7.,-6.93889390390723E-16));
#533=CARTESIAN_POINT('',(-7.07233526507596E-16,-5.775,1.225));
#534=CARTESIAN_POINT('Origin',(0.,0.,0.));
#535=CARTESIAN_POINT('Origin',(-1.81984748449203E-15,9.17986928011505,0.));
#536=CARTESIAN_POINT('',(-1.6863146295726E-15,9.17986928011505,0.));
#537=CARTESIAN_POINT('',(-7.95,4.58993464005753,0.));
#538=CARTESIAN_POINT('Origin',(-7.95,4.58993464005753,0.));
#539=CARTESIAN_POINT('',(-7.95,-4.58993464005753,0.));
#540=CARTESIAN_POINT('Origin',(7.95,4.58993464005753,0.));
#541=CARTESIAN_POINT('',(7.95,4.58993464005753,0.));
#542=CARTESIAN_POINT('Origin',(7.95,-4.58993464005752,0.));
#543=CARTESIAN_POINT('',(7.95,-4.58993464005752,0.));
#544=CARTESIAN_POINT('Origin',(0.,0.,10.));
#545=CARTESIAN_POINT('',(-7.1,-8.69499227394621E-16,10.));
#546=CARTESIAN_POINT('Origin',(0.,0.,7.));
#547=CARTESIAN_POINT('',(-6.15,-7.53157781475623E-16,7.));
#548=CARTESIAN_POINT('',(-6.15,-7.53157781475623E-16,7.));
#549=CARTESIAN_POINT('Origin',(0.,0.,7.));
#550=CARTESIAN_POINT('Origin',(6.99134413549439E-16,-9.17986928011505,0.));
#551=CARTESIAN_POINT('',(5.62104876524201E-16,-9.17986928011505,0.));
#552=CARTESIAN_POINT('Origin',(-7.95,-4.58993464005753,0.));
#553=CARTESIAN_POINT('Origin',(0.,0.,7.));
#554=CARTESIAN_POINT('Origin',(5.55111512312578E-16,0.,0.));
#555=UNCERTAINTY_MEASURE_WITH_UNIT(LENGTH_MEASURE(0.01),#559,
'DISTANCE_ACCURACY_VALUE',
'Maximum model space distance between geometric entities at asserted c
onnectivities');
#556=UNCERTAINTY_MEASURE_WITH_UNIT(LENGTH_MEASURE(0.01),#559,
'DISTANCE_ACCURACY_VALUE',
'Maximum model space distance between geometric entities at asserted c
onnectivities');
#557=(
GEOMETRIC_REPRESENTATION_CONTEXT(3)
GLOBAL_UNCERTAINTY_ASSIGNED_CONTEXT((#555))
GLOBAL_UNIT_ASSIGNED_CONTEXT((#559,#561,#562))
REPRESENTATION_CONTEXT('','3D')
);
#558=(
GEOMETRIC_REPRESENTATION_CONTEXT(3)
GLOBAL_UNCERTAINTY_ASSIGNED_CONTEXT((#556))
GLOBAL_UNIT_ASSIGNED_CONTEXT((#559,#561,#562))
REPRESENTATION_CONTEXT('','3D')
);
#559=(
LENGTH_UNIT()
NAMED_UNIT(*)
SI_UNIT(.MILLI.,.METRE.)
);
#560=(
LENGTH_UNIT()
NAMED_UNIT(*)
SI_UNIT(.CENTI.,.METRE.)
);
#561=(
NAMED_UNIT(*)
PLANE_ANGLE_UNIT()
SI_UNIT($,.RADIAN.)
);
#562=(
NAMED_UNIT(*)
SI_UNIT($,.STERADIAN.)
SOLID_ANGLE_UNIT()
);
#563=SHAPE_DEFINITION_REPRESENTATION(#564,#565);
#564=PRODUCT_DEFINITION_SHAPE('',$,#567);
#565=SHAPE_REPRESENTATION('',(#324),#557);
#566=PRODUCT_DEFINITION_CONTEXT('part definition',#571,'design');
#567=PRODUCT_DEFINITION('SM4MN','SM4MN',#568,#566);
#568=PRODUCT_DEFINITION_FORMATION('',$,#573);
#569=PRODUCT_RELATED_PRODUCT_CATEGORY('SM4MN','SM4MN',(#573));
#570=APPLICATION_PROTOCOL_DEFINITION('international standard',
'automotive_design',2009,#571);
#571=APPLICATION_CONTEXT(
'Core Data for Automotive Mechanical Design Process');
#572=PRODUCT_CONTEXT('part definition',#571,'mechanical');
#573=PRODUCT('SM4MN','SM4MN',$,(#572));
#574=PRESENTATION_STYLE_ASSIGNMENT((#575));
#575=SURFACE_STYLE_USAGE(.BOTH.,#578);
#576=SURFACE_STYLE_RENDERING_WITH_PROPERTIES($,#582,(#577));
#577=SURFACE_STYLE_TRANSPARENT(0.);
#578=SURFACE_SIDE_STYLE('',(#579,#576));
#579=SURFACE_STYLE_FILL_AREA(#580);
#580=FILL_AREA_STYLE('',(#581));
#581=FILL_AREA_STYLE_COLOUR('',#582);
#582=COLOUR_RGB('',0.745098039215686,0.737254901960784,0.729411764705882);
ENDSEC;
END-ISO-10303-21;
