ISO-10303-21;
HEADER;
/****************************************************************
 * Generated by software with PDE/Lib inside                    *
 * PDElib Version v51a, created Thu 12/14/2006                  *
 * International Technegroup Inc. (www.iti-oh.com)              *
 ****************************************************************/
FILE_DESCRIPTION((''),'2;1');
FILE_NAME('T:\\Arbeitspl\S\dtze\\Aushilfe\\KPeters\\3D\\Steps 08_10\\70901\\70901034X.stp','2010-09-10T12:53:49',('thilbrands'),(''),'Autodesk Inventor 2008','Autodesk Inventor 2008','');
FILE_SCHEMA(('AUTOMOTIVE_DESIGN { 1 0 10303 214 1 1 1 1 }'));
ENDSEC;
DATA;
#5=APPLICATION_CONTEXT('automotive design');
#6=APPLICATION_PROTOCOL_DEFINITION('International Standard','automotive_design',2001,#5);
#7=PRODUCT_CONTEXT('',#5,'mechanical');
#8=PRODUCT('70901012X','70901012X',$,(#7));
#9=PRODUCT_RELATED_PRODUCT_CATEGORY('part',$,(#8));
#10=PRODUCT_DEFINITION_FORMATION('',$,#8);
#11=PRODUCT_DEFINITION_CONTEXT('part definition',#5,'design');
#12=PRODUCT_DEFINITION('',$,#10,#11);
#18=(NAMED_UNIT(*)PLANE_ANGLE_UNIT()SI_UNIT($,.RADIAN.));
#19=DIMENSIONAL_EXPONENTS(0.0,0.0,0.0,0.0,0.0,0.0,0.0);
#20=PLANE_ANGLE_MEASURE_WITH_UNIT(PLANE_ANGLE_MEASURE(0.017453292500000),#18);
#24=(CONVERSION_BASED_UNIT('DEGREE',#20)NAMED_UNIT(#19)PLANE_ANGLE_UNIT());
#28=(NAMED_UNIT(*)SI_UNIT($,.STERADIAN.)SOLID_ANGLE_UNIT());
#32=(LENGTH_UNIT()NAMED_UNIT(*)SI_UNIT(.MILLI.,.METRE.));
#34=UNCERTAINTY_MEASURE_WITH_UNIT(LENGTH_MEASURE(0.010000000000000),#32,'DISTANCE_ACCURACY_VALUE','');
#36=(GEOMETRIC_REPRESENTATION_CONTEXT(3)GLOBAL_UNCERTAINTY_ASSIGNED_CONTEXT((#34))GLOBAL_UNIT_ASSIGNED_CONTEXT((#24,#28,#32))REPRESENTATION_CONTEXT('None','None'));
#37=AXIS2_PLACEMENT_3D('',#38,#39,#40);
#38=CARTESIAN_POINT('',(0.0,0.0,0.0));
#39=DIRECTION('',(0.0,0.0,1.0));
#40=DIRECTION('',(1.0,0.0,0.0));
#41=SHAPE_REPRESENTATION('',(#37),#36);
#42=PRODUCT_DEFINITION_SHAPE('','',#12);
#43=SHAPE_DEFINITION_REPRESENTATION(#42,#41);
#49=(NAMED_UNIT(*)PLANE_ANGLE_UNIT()SI_UNIT($,.RADIAN.));
#50=DIMENSIONAL_EXPONENTS(0.0,0.0,0.0,0.0,0.0,0.0,0.0);
#51=PLANE_ANGLE_MEASURE_WITH_UNIT(PLANE_ANGLE_MEASURE(0.017453292500000),#49);
#55=(CONVERSION_BASED_UNIT('DEGREE',#51)NAMED_UNIT(#50)PLANE_ANGLE_UNIT());
#59=(NAMED_UNIT(*)SI_UNIT($,.STERADIAN.)SOLID_ANGLE_UNIT());
#63=(LENGTH_UNIT()NAMED_UNIT(*)SI_UNIT(.MILLI.,.METRE.));
#65=UNCERTAINTY_MEASURE_WITH_UNIT(LENGTH_MEASURE(0.000001000000000),#63,'DISTANCE_ACCURACY_VALUE','');
#67=(GEOMETRIC_REPRESENTATION_CONTEXT(3)GLOBAL_UNCERTAINTY_ASSIGNED_CONTEXT((#65))GLOBAL_UNIT_ASSIGNED_CONTEXT((#55,#59,#63))REPRESENTATION_CONTEXT('','3D'));
#68=CARTESIAN_POINT('',(-20.784609690826535,2.545297E-015,-3.186156123669385));
#69=CARTESIAN_POINT('',(-15.588457268119893,1.908972E-015,-5.264617092752042));
#70=CARTESIAN_POINT('',(-20.784609690826528,20.784609690826535,-3.186156123669385));
#71=CARTESIAN_POINT('',(-15.588457268119885,15.588457268119891,-5.264617092752042));
#72=CARTESIAN_POINT('',(2.628277E-015,20.784609690826535,-3.186156123669384));
#73=CARTESIAN_POINT('',(2.046084E-015,15.588457268119893,-5.264617092752042));
#74=CARTESIAN_POINT('',(20.784609690826535,20.784609690826528,-3.186156123669384));
#75=CARTESIAN_POINT('',(15.588457268119891,15.588457268119885,-5.264617092752042));
#76=CARTESIAN_POINT('',(20.784609690826535,-2.545297E-015,-3.186156123669384));
#77=CARTESIAN_POINT('',(15.588457268119893,-1.908972E-015,-5.264617092752042));
#78=CARTESIAN_POINT('',(20.784609690826528,-20.784609690826535,-3.186156123669384));
#79=CARTESIAN_POINT('',(15.588457268119885,-15.588457268119891,-5.264617092752042));
#80=CARTESIAN_POINT('',(-2.462316E-015,-20.784609690826535,-3.186156123669384));
#81=CARTESIAN_POINT('',(-1.771861E-015,-15.588457268119893,-5.264617092752042));
#82=CARTESIAN_POINT('',(-20.784609690826535,-20.784609690826528,-3.186156123669385));
#83=CARTESIAN_POINT('',(-15.588457268119891,-15.588457268119885,-5.264617092752042));
#84=CARTESIAN_POINT('',(-20.784609690826535,2.545297E-015,-3.186156123669385));
#85=CARTESIAN_POINT('',(-15.588457268119893,1.908972E-015,-5.264617092752042));
#93=(BOUNDED_SURFACE()B_SPLINE_SURFACE(1,2,((#68,#70,#72,#74,#76,#78,#80,#82,#84),(#69,#71,#73,#75,#77,#79,#81,#83,#85)),.UNSPECIFIED.,.F.,.T.,.U.)B_SPLINE_SURFACE_WITH_KNOTS((2,2),(3,2,2,2,3),(-0.184133783779475,0.131157902522119),(0.0,27.881634800609401,55.763269601218802,83.644904401828214,111.526539202437600),.UNSPECIFIED.)GEOMETRIC_REPRESENTATION_ITEM()RATIONAL_B_SPLINE_SURFACE(((1.0,0.707106781186548,1.0,0.707106781186548,1.0,0.707106781186548,1.0,0.707106781186548,1.0),(1.0,0.707106781186548,1.0,0.707106781186548,1.0,0.707106781186548,1.0,0.707106781186548,1.0)))REPRESENTATION_ITEM('')SURFACE());
#94=CARTESIAN_POINT('',(-18.000000000000014,10.392304845413257,-3.186156123669384));
#95=VERTEX_POINT('',#94);
#96=CARTESIAN_POINT('',(-18.000000000000004,-10.392304845413275,-3.186156123669384));
#97=VERTEX_POINT('',#96);
#98=CARTESIAN_POINT('',(-18.000000000000014,10.392304845413257,-3.186156123669384));
#99=CARTESIAN_POINT('',(-18.000000000000011,-4.440892E-015,-5.264617092752034));
#100=CARTESIAN_POINT('',(-18.000000000000004,-10.392304845413275,-3.186156123669384));
#108=(BOUNDED_CURVE()B_SPLINE_CURVE(2,(#98,#99,#100),.UNSPECIFIED.,.F.,.U.)B_SPLINE_CURVE_WITH_KNOTS((3,3),(0.277508798587369,2.471351195136048),.UNSPECIFIED.)CURVE()GEOMETRIC_REPRESENTATION_ITEM()RATIONAL_B_SPLINE_CURVE((1.046121599794815,1.207957174493238,1.046121599794815))REPRESENTATION_ITEM(''));
#109=EDGE_CURVE('',#95,#97,#108,.T.);
#110=ORIENTED_EDGE('',*,*,#109,.F.);
#111=CARTESIAN_POINT('',(-2.481966E-014,20.784609690826528,-3.186156123669386));
#112=VERTEX_POINT('',#111);
#113=CARTESIAN_POINT('',(-2.481966E-014,20.784609690826528,-3.186156123669386));
#114=CARTESIAN_POINT('',(-9.000000000000023,15.588457268119893,-5.264617092752031));
#115=CARTESIAN_POINT('',(-18.000000000000014,10.392304845413257,-3.186156123669384));
#123=(BOUNDED_CURVE()B_SPLINE_CURVE(2,(#113,#114,#115),.UNSPECIFIED.,.F.,.U.)B_SPLINE_CURVE_WITH_KNOTS((3,3),(0.277508798587371,2.471351195136049),.UNSPECIFIED.)CURVE()GEOMETRIC_REPRESENTATION_ITEM()RATIONAL_B_SPLINE_CURVE((1.046121599794815,1.207957174493235,1.046121599794815))REPRESENTATION_ITEM(''));
#124=EDGE_CURVE('',#112,#95,#123,.T.);
#125=ORIENTED_EDGE('',*,*,#124,.F.);
#126=CARTESIAN_POINT('',(17.999999999999993,10.392304845413269,-3.186156123669389));
#127=VERTEX_POINT('',#126);
#128=CARTESIAN_POINT('',(17.999999999999993,10.392304845413269,-3.186156123669389));
#129=CARTESIAN_POINT('',(8.999999999999984,15.588457268119909,-5.264617092752040));
#130=CARTESIAN_POINT('',(-2.481966E-014,20.784609690826528,-3.186156123669386));
#138=(BOUNDED_CURVE()B_SPLINE_CURVE(2,(#128,#129,#130),.UNSPECIFIED.,.F.,.U.)B_SPLINE_CURVE_WITH_KNOTS((3,3),(0.277508798587371,2.471351195136051),.UNSPECIFIED.)CURVE()GEOMETRIC_REPRESENTATION_ITEM()RATIONAL_B_SPLINE_CURVE((1.046121599794815,1.207957174493239,1.046121599794815))REPRESENTATION_ITEM(''));
#139=EDGE_CURVE('',#127,#112,#138,.T.);
#140=ORIENTED_EDGE('',*,*,#139,.F.);
#141=CARTESIAN_POINT('',(17.999999999999996,-10.392304845413257,-3.186156123669389));
#142=VERTEX_POINT('',#141);
#143=CARTESIAN_POINT('',(17.999999999999996,-10.392304845413257,-3.186156123669389));
#144=CARTESIAN_POINT('',(17.999999999999993,6.661338E-015,-5.264617092752037));
#145=CARTESIAN_POINT('',(17.999999999999993,10.392304845413269,-3.186156123669389));
#153=(BOUNDED_CURVE()B_SPLINE_CURVE(2,(#143,#144,#145),.UNSPECIFIED.,.F.,.U.)B_SPLINE_CURVE_WITH_KNOTS((3,3),(0.277508798587371,2.471351195136049),.UNSPECIFIED.)CURVE()GEOMETRIC_REPRESENTATION_ITEM()RATIONAL_B_SPLINE_CURVE((1.046121599794815,1.207957174493236,1.046121599794815))REPRESENTATION_ITEM(''));
#154=EDGE_CURVE('',#142,#127,#153,.T.);
#155=ORIENTED_EDGE('',*,*,#154,.F.);
#156=CARTESIAN_POINT('',(1.171980E-016,-20.784609690826525,-3.186156123669388));
#157=VERTEX_POINT('',#156);
#158=CARTESIAN_POINT('',(1.171980E-016,-20.784609690826525,-3.186156123669388));
#159=CARTESIAN_POINT('',(9.0,-15.588457268119885,-5.264617092752038));
#160=CARTESIAN_POINT('',(17.999999999999996,-10.392304845413257,-3.186156123669389));
#168=(BOUNDED_CURVE()B_SPLINE_CURVE(2,(#158,#159,#160),.UNSPECIFIED.,.F.,.U.)B_SPLINE_CURVE_WITH_KNOTS((3,3),(0.277508798587370,2.471351195136049),.UNSPECIFIED.)CURVE()GEOMETRIC_REPRESENTATION_ITEM()RATIONAL_B_SPLINE_CURVE((1.046121599794815,1.207957174493240,1.046121599794815))REPRESENTATION_ITEM(''));
#169=EDGE_CURVE('',#157,#142,#168,.T.);
#170=ORIENTED_EDGE('',*,*,#169,.F.);
#171=CARTESIAN_POINT('',(-18.000000000000004,-10.392304845413275,-3.186156123669384));
#172=CARTESIAN_POINT('',(-9.0,-15.588457268119910,-5.264617092752033));
#173=CARTESIAN_POINT('',(1.171980E-016,-20.784609690826525,-3.186156123669388));
#181=(BOUNDED_CURVE()B_SPLINE_CURVE(2,(#171,#172,#173),.UNSPECIFIED.,.F.,.U.)B_SPLINE_CURVE_WITH_KNOTS((3,3),(0.277508798587370,2.471351195136047),.UNSPECIFIED.)CURVE()GEOMETRIC_REPRESENTATION_ITEM()RATIONAL_B_SPLINE_CURVE((1.046121599794815,1.207957174493235,1.046121599794815))REPRESENTATION_ITEM(''));
#182=EDGE_CURVE('',#97,#157,#181,.T.);
#183=ORIENTED_EDGE('',*,*,#182,.F.);
#184=EDGE_LOOP('',(#110,#125,#140,#155,#170,#183));
#185=FACE_OUTER_BOUND('',#184,.T.);
#186=CARTESIAN_POINT('',(-17.499999999999996,2.143061E-015,-4.500000000000001));
#187=VERTEX_POINT('',#186);
#188=CARTESIAN_POINT('',(1.171980E-016,0.0,-4.500000000000000));
#189=DIRECTION('',(0.0,0.0,-1.0));
#190=DIRECTION('',(1.0,0.0,0.0));
#191=AXIS2_PLACEMENT_3D('',#188,#189,#190);
#192=CIRCLE('',#191,17.499999999999996);
#193=EDGE_CURVE('',#187,#187,#192,.T.);
#194=ORIENTED_EDGE('',*,*,#193,.F.);
#195=EDGE_LOOP('',(#194));
#196=FACE_BOUND('',#195,.T.);
#197=ADVANCED_FACE('',(#185,#196),#93,.F.);
#198=CARTESIAN_POINT('',(17.999999999999993,10.392304845413269,0.0));
#199=DIRECTION('',(1.0,0.0,0.0));
#200=DIRECTION('',(0.0,0.0,-1.0));
#201=AXIS2_PLACEMENT_3D('',#198,#199,#200);
#202=PLANE('',#201);
#203=ORIENTED_EDGE('',*,*,#154,.T.);
#204=CARTESIAN_POINT('',(17.999999999999993,10.392304845413269,3.186156123669389));
#205=VERTEX_POINT('',#204);
#206=CARTESIAN_POINT('',(17.999999999999993,10.392304845413269,3.186156123669389));
#207=DIRECTION('',(0.0,0.0,-1.0));
#208=VECTOR('',#207,6.372312247338778);
#209=LINE('',#206,#208);
#210=EDGE_CURVE('',#205,#127,#209,.T.);
#211=ORIENTED_EDGE('',*,*,#210,.F.);
#212=CARTESIAN_POINT('',(17.999999999999996,-10.392304845413257,3.186156123669389));
#213=VERTEX_POINT('',#212);
#214=CARTESIAN_POINT('',(17.999999999999993,10.392304845413269,3.186156123669389));
#215=CARTESIAN_POINT('',(17.999999999999993,8.881784E-015,5.264617092752038));
#216=CARTESIAN_POINT('',(17.999999999999996,-10.392304845413257,3.186156123669389));
#224=(BOUNDED_CURVE()B_SPLINE_CURVE(2,(#214,#215,#216),.UNSPECIFIED.,.F.,.U.)B_SPLINE_CURVE_WITH_KNOTS((3,3),(0.277508798587371,2.471351195136049),.UNSPECIFIED.)CURVE()GEOMETRIC_REPRESENTATION_ITEM()RATIONAL_B_SPLINE_CURVE((1.046121599794815,1.207957174493236,1.046121599794815))REPRESENTATION_ITEM(''));
#225=EDGE_CURVE('',#205,#213,#224,.T.);
#226=ORIENTED_EDGE('',*,*,#225,.T.);
#227=CARTESIAN_POINT('',(17.999999999999996,-10.392304845413257,3.186156123669389));
#228=DIRECTION('',(0.0,0.0,-1.0));
#229=VECTOR('',#228,6.372312247338778);
#230=LINE('',#227,#229);
#231=EDGE_CURVE('',#213,#142,#230,.T.);
#232=ORIENTED_EDGE('',*,*,#231,.T.);
#233=EDGE_LOOP('',(#203,#211,#226,#232));
#234=FACE_OUTER_BOUND('',#233,.T.);
#235=ADVANCED_FACE('',(#234),#202,.T.);
#236=CARTESIAN_POINT('',(-2.481966E-014,20.784609690826528,0.0));
#237=DIRECTION('',(0.500000000000000,0.866025403784439,0.0));
#238=DIRECTION('',(0.0,0.0,1.0));
#239=AXIS2_PLACEMENT_3D('',#236,#237,#238);
#240=PLANE('',#239);
#241=ORIENTED_EDGE('',*,*,#139,.T.);
#242=CARTESIAN_POINT('',(-2.481966E-014,20.784609690826528,3.186156123669386));
#243=VERTEX_POINT('',#242);
#244=CARTESIAN_POINT('',(-2.481966E-014,20.784609690826528,-3.186156123669386));
#245=DIRECTION('',(0.0,0.0,1.0));
#246=VECTOR('',#245,6.372312247338773);
#247=LINE('',#244,#246);
#248=EDGE_CURVE('',#112,#243,#247,.T.);
#249=ORIENTED_EDGE('',*,*,#248,.T.);
#250=CARTESIAN_POINT('',(-2.481966E-014,20.784609690826528,3.186156123669386));
#251=CARTESIAN_POINT('',(8.999999999999982,15.588457268119896,5.264617092752041));
#252=CARTESIAN_POINT('',(17.999999999999993,10.392304845413269,3.186156123669389));
#260=(BOUNDED_CURVE()B_SPLINE_CURVE(2,(#250,#251,#252),.UNSPECIFIED.,.F.,.U.)B_SPLINE_CURVE_WITH_KNOTS((3,3),(0.277508798587369,2.471351195136050),.UNSPECIFIED.)CURVE()GEOMETRIC_REPRESENTATION_ITEM()RATIONAL_B_SPLINE_CURVE((1.046121599794815,1.207957174493239,1.046121599794815))REPRESENTATION_ITEM(''));
#261=EDGE_CURVE('',#243,#205,#260,.T.);
#262=ORIENTED_EDGE('',*,*,#261,.T.);
#263=ORIENTED_EDGE('',*,*,#210,.T.);
#264=EDGE_LOOP('',(#241,#249,#262,#263));
#265=FACE_OUTER_BOUND('',#264,.T.);
#266=ADVANCED_FACE('',(#265),#240,.T.);
#267=CARTESIAN_POINT('',(-18.000000000000014,10.392304845413257,0.0));
#268=DIRECTION('',(-0.500000000000001,0.866025403784438,0.0));
#269=DIRECTION('',(0.0,0.0,1.0));
#270=AXIS2_PLACEMENT_3D('',#267,#268,#269);
#271=PLANE('',#270);
#272=ORIENTED_EDGE('',*,*,#124,.T.);
#273=CARTESIAN_POINT('',(-18.000000000000014,10.392304845413257,3.186156123669384));
#274=VERTEX_POINT('',#273);
#275=CARTESIAN_POINT('',(-18.000000000000014,10.392304845413257,3.186156123669384));
#276=DIRECTION('',(0.0,0.0,-1.0));
#277=VECTOR('',#276,6.372312247338767);
#278=LINE('',#275,#277);
#279=EDGE_CURVE('',#274,#95,#278,.T.);
#280=ORIENTED_EDGE('',*,*,#279,.F.);
#281=CARTESIAN_POINT('',(-18.000000000000014,10.392304845413257,3.186156123669384));
#282=CARTESIAN_POINT('',(-9.000000000000014,15.588457268119901,5.264617092752030));
#283=CARTESIAN_POINT('',(-2.481966E-014,20.784609690826528,3.186156123669386));
#291=(BOUNDED_CURVE()B_SPLINE_CURVE(2,(#281,#282,#283),.UNSPECIFIED.,.F.,.U.)B_SPLINE_CURVE_WITH_KNOTS((3,3),(0.277508798587370,2.471351195136047),.UNSPECIFIED.)CURVE()GEOMETRIC_REPRESENTATION_ITEM()RATIONAL_B_SPLINE_CURVE((1.046121599794815,1.207957174493235,1.046121599794815))REPRESENTATION_ITEM(''));
#292=EDGE_CURVE('',#274,#243,#291,.T.);
#293=ORIENTED_EDGE('',*,*,#292,.T.);
#294=ORIENTED_EDGE('',*,*,#248,.F.);
#295=EDGE_LOOP('',(#272,#280,#293,#294));
#296=FACE_OUTER_BOUND('',#295,.T.);
#297=ADVANCED_FACE('',(#296),#271,.T.);
#298=CARTESIAN_POINT('',(1.145936E-016,0.0,4.400000000000000));
#299=DIRECTION('',(-2.604401E-017,0.0,-1.0));
#300=DIRECTION('',(1.0,0.0,0.0));
#301=AXIS2_PLACEMENT_3D('',#298,#299,#300);
#302=CONICAL_SURFACE('',#301,17.749999999999993,68.198590513648185);
#303=ORIENTED_EDGE('',*,*,#225,.F.);
#304=ORIENTED_EDGE('',*,*,#261,.F.);
#305=ORIENTED_EDGE('',*,*,#292,.F.);
#306=CARTESIAN_POINT('',(-18.000000000000004,-10.392304845413275,3.186156123669384));
#307=VERTEX_POINT('',#306);
#308=CARTESIAN_POINT('',(-18.000000000000004,-10.392304845413275,3.186156123669384));
#309=CARTESIAN_POINT('',(-18.000000000000007,-1.110223E-014,5.264617092752031));
#310=CARTESIAN_POINT('',(-18.000000000000014,10.392304845413257,3.186156123669384));
#318=(BOUNDED_CURVE()B_SPLINE_CURVE(2,(#308,#309,#310),.UNSPECIFIED.,.F.,.U.)B_SPLINE_CURVE_WITH_KNOTS((3,3),(0.277508798587369,2.471351195136048),.UNSPECIFIED.)CURVE()GEOMETRIC_REPRESENTATION_ITEM()RATIONAL_B_SPLINE_CURVE((1.046121599794815,1.207957174493238,1.046121599794815))REPRESENTATION_ITEM(''));
#319=EDGE_CURVE('',#307,#274,#318,.T.);
#320=ORIENTED_EDGE('',*,*,#319,.F.);
#321=CARTESIAN_POINT('',(1.171980E-016,-20.784609690826525,3.186156123669388));
#322=VERTEX_POINT('',#321);
#323=CARTESIAN_POINT('',(1.171980E-016,-20.784609690826525,3.186156123669388));
#324=CARTESIAN_POINT('',(-9.000000000000002,-15.588457268119901,5.264617092752029));
#325=CARTESIAN_POINT('',(-18.000000000000004,-10.392304845413275,3.186156123669384));
#333=(BOUNDED_CURVE()B_SPLINE_CURVE(2,(#323,#324,#325),.UNSPECIFIED.,.F.,.U.)B_SPLINE_CURVE_WITH_KNOTS((3,3),(0.277508798587371,2.471351195136048),.UNSPECIFIED.)CURVE()GEOMETRIC_REPRESENTATION_ITEM()RATIONAL_B_SPLINE_CURVE((1.046121599794815,1.207957174493235,1.046121599794814))REPRESENTATION_ITEM(''));
#334=EDGE_CURVE('',#322,#307,#333,.T.);
#335=ORIENTED_EDGE('',*,*,#334,.F.);
#336=CARTESIAN_POINT('',(17.999999999999996,-10.392304845413257,3.186156123669389));
#337=CARTESIAN_POINT('',(8.999999999999995,-15.588457268119896,5.264617092752037));
#338=CARTESIAN_POINT('',(1.171980E-016,-20.784609690826525,3.186156123669388));
#346=(BOUNDED_CURVE()B_SPLINE_CURVE(2,(#336,#337,#338),.UNSPECIFIED.,.F.,.U.)B_SPLINE_CURVE_WITH_KNOTS((3,3),(0.277508798587370,2.471351195136049),.UNSPECIFIED.)CURVE()GEOMETRIC_REPRESENTATION_ITEM()RATIONAL_B_SPLINE_CURVE((1.046121599794815,1.207957174493240,1.046121599794815))REPRESENTATION_ITEM(''));
#347=EDGE_CURVE('',#213,#322,#346,.T.);
#348=ORIENTED_EDGE('',*,*,#347,.F.);
#349=EDGE_LOOP('',(#303,#304,#305,#320,#335,#348));
#350=FACE_OUTER_BOUND('',#349,.T.);
#351=CARTESIAN_POINT('',(-17.499999999999996,-2.143061E-015,4.500000000000001));
#352=VERTEX_POINT('',#351);
#353=CARTESIAN_POINT('',(1.171980E-016,0.0,4.500000000000000));
#354=DIRECTION('',(0.0,0.0,1.0));
#355=DIRECTION('',(1.0,0.0,0.0));
#356=AXIS2_PLACEMENT_3D('',#353,#354,#355);
#357=CIRCLE('',#356,17.499999999999996);
#358=EDGE_CURVE('',#352,#352,#357,.T.);
#359=ORIENTED_EDGE('',*,*,#358,.F.);
#360=EDGE_LOOP('',(#359));
#361=FACE_BOUND('',#360,.T.);
#362=ADVANCED_FACE('',(#350,#361),#302,.T.);
#363=CARTESIAN_POINT('',(-18.000000000000004,-10.392304845413271,0.0));
#364=DIRECTION('',(-1.0,0.0,0.0));
#365=DIRECTION('',(0.0,0.0,1.0));
#366=AXIS2_PLACEMENT_3D('',#363,#364,#365);
#367=PLANE('',#366);
#368=ORIENTED_EDGE('',*,*,#109,.T.);
#369=CARTESIAN_POINT('',(-18.000000000000004,-10.392304845413275,3.186156123669384));
#370=DIRECTION('',(0.0,0.0,-1.0));
#371=VECTOR('',#370,6.372312247338767);
#372=LINE('',#369,#371);
#373=EDGE_CURVE('',#307,#97,#372,.T.);
#374=ORIENTED_EDGE('',*,*,#373,.F.);
#375=ORIENTED_EDGE('',*,*,#319,.T.);
#376=ORIENTED_EDGE('',*,*,#279,.T.);
#377=EDGE_LOOP('',(#368,#374,#375,#376));
#378=FACE_OUTER_BOUND('',#377,.T.);
#379=ADVANCED_FACE('',(#378),#367,.T.);
#380=CARTESIAN_POINT('',(0.0,0.0,4.500000000000000));
#381=DIRECTION('',(0.0,0.0,-1.0));
#382=DIRECTION('',(-1.0,0.0,0.0));
#383=AXIS2_PLACEMENT_3D('',#380,#381,#382);
#384=CYLINDRICAL_SURFACE('',#383,13.220499999999999);
#385=CARTESIAN_POINT('',(13.220499999999999,1.618991E-015,-4.500000000000000));
#386=VERTEX_POINT('',#385);
#387=CARTESIAN_POINT('',(0.0,0.0,-4.500000000000000));
#388=DIRECTION('',(0.0,0.0,1.0));
#389=DIRECTION('',(-1.0,0.0,0.0));
#390=AXIS2_PLACEMENT_3D('',#387,#388,#389);
#391=CIRCLE('',#390,13.220499999999999);
#392=EDGE_CURVE('',#386,#386,#391,.T.);
#393=ORIENTED_EDGE('',*,*,#392,.F.);
#394=EDGE_LOOP('',(#393));
#395=FACE_OUTER_BOUND('',#394,.T.);
#396=CARTESIAN_POINT('',(13.220499999999999,1.619044E-015,4.500000000000000));
#397=VERTEX_POINT('',#396);
#398=CARTESIAN_POINT('',(0.0,0.0,4.500000000000000));
#399=DIRECTION('',(0.0,0.0,-1.0));
#400=DIRECTION('',(-1.0,0.0,0.0));
#401=AXIS2_PLACEMENT_3D('',#398,#399,#400);
#402=CIRCLE('',#401,13.220499999999999);
#403=EDGE_CURVE('',#397,#397,#402,.T.);
#404=ORIENTED_EDGE('',*,*,#403,.F.);
#405=EDGE_LOOP('',(#404));
#406=FACE_BOUND('',#405,.T.);
#407=ADVANCED_FACE('',(#395,#406),#384,.F.);
#408=CARTESIAN_POINT('',(-8.604228E-015,1.665335E-015,-4.500000000000000));
#409=DIRECTION('',(0.0,0.0,1.0));
#410=DIRECTION('',(1.0,0.0,0.0));
#411=AXIS2_PLACEMENT_3D('',#408,#409,#410);
#412=PLANE('',#411);
#413=ORIENTED_EDGE('',*,*,#193,.T.);
#414=EDGE_LOOP('',(#413));
#415=FACE_OUTER_BOUND('',#414,.T.);
#416=ORIENTED_EDGE('',*,*,#392,.T.);
#417=EDGE_LOOP('',(#416));
#418=FACE_BOUND('',#417,.T.);
#419=ADVANCED_FACE('',(#415,#418),#412,.F.);
#420=CARTESIAN_POINT('',(17.999999999999996,-10.392304845413257,0.0));
#421=DIRECTION('',(0.500000000000000,-0.866025403784438,0.0));
#422=DIRECTION('',(0.0,0.0,-1.0));
#423=AXIS2_PLACEMENT_3D('',#420,#421,#422);
#424=PLANE('',#423);
#425=ORIENTED_EDGE('',*,*,#169,.T.);
#426=ORIENTED_EDGE('',*,*,#231,.F.);
#427=ORIENTED_EDGE('',*,*,#347,.T.);
#428=CARTESIAN_POINT('',(1.171980E-016,-20.784609690826525,3.186156123669388));
#429=DIRECTION('',(0.0,0.0,-1.0));
#430=VECTOR('',#429,6.372312247338776);
#431=LINE('',#428,#430);
#432=EDGE_CURVE('',#322,#157,#431,.T.);
#433=ORIENTED_EDGE('',*,*,#432,.T.);
#434=EDGE_LOOP('',(#425,#426,#427,#433));
#435=FACE_OUTER_BOUND('',#434,.T.);
#436=ADVANCED_FACE('',(#435),#424,.T.);
#437=CARTESIAN_POINT('',(1.171980E-016,-20.784609690826525,0.0));
#438=DIRECTION('',(-0.500000000000000,-0.866025403784439,0.0));
#439=DIRECTION('',(0.0,0.0,-1.0));
#440=AXIS2_PLACEMENT_3D('',#437,#438,#439);
#441=PLANE('',#440);
#442=ORIENTED_EDGE('',*,*,#182,.T.);
#443=ORIENTED_EDGE('',*,*,#432,.F.);
#444=ORIENTED_EDGE('',*,*,#334,.T.);
#445=ORIENTED_EDGE('',*,*,#373,.T.);
#446=EDGE_LOOP('',(#442,#443,#444,#445));
#447=FACE_OUTER_BOUND('',#446,.T.);
#448=ADVANCED_FACE('',(#447),#441,.T.);
#449=CARTESIAN_POINT('',(-9.436896E-015,1.665335E-015,4.500000000000000));
#450=DIRECTION('',(0.0,0.0,1.0));
#451=DIRECTION('',(1.0,0.0,0.0));
#452=AXIS2_PLACEMENT_3D('',#449,#450,#451);
#453=PLANE('',#452);
#454=ORIENTED_EDGE('',*,*,#358,.T.);
#455=EDGE_LOOP('',(#454));
#456=FACE_OUTER_BOUND('',#455,.T.);
#457=ORIENTED_EDGE('',*,*,#403,.T.);
#458=EDGE_LOOP('',(#457));
#459=FACE_BOUND('',#458,.T.);
#460=ADVANCED_FACE('',(#456,#459),#453,.T.);
#461=CLOSED_SHELL('',(#197,#235,#266,#297,#362,#379,#407,#419,#436,#448,#460));
#462=MANIFOLD_SOLID_BREP('',#461);
#463=COLOUR_RGB('Metall - Stahl',0.639216005802155,0.639216005802155,0.686275005340576);
#464=FILL_AREA_STYLE_COLOUR('Metall - Stahl',#463);
#465=FILL_AREA_STYLE('Metall - Stahl',(#464));
#466=SURFACE_STYLE_FILL_AREA(#465);
#467=SURFACE_SIDE_STYLE('Metall - Stahl',(#466));
#468=SURFACE_STYLE_USAGE(.BOTH.,#467);
#469=PRESENTATION_STYLE_ASSIGNMENT((#468));
#470=STYLED_ITEM('',(#469),#462);
#471=MECHANICAL_DESIGN_GEOMETRIC_PRESENTATION_REPRESENTATION('',(#470),#36);
#472=ADVANCED_BREP_SHAPE_REPRESENTATION('ABSR',(#462),#36);
#473=SHAPE_REPRESENTATION_RELATIONSHIP('SRR','None',#472,#41);
ENDSEC;
END-ISO-10303-21;
