ISO-10303-21;
HEADER;
/* Generated by software containing ST-Developer
 * from STEP Tools, Inc. (www.steptools.com) 
 */

FILE_DESCRIPTION(
/* description */ (''),
/* implementation_level */ '2;1');

FILE_NAME(
/* name */ '43221.stp',
/* time_stamp */ '2023-09-08T11:24:27+02:00',
/* author */ ('JANAN'),
/* organization */ (''),
/* preprocessor_version */ 'ST-DEVELOPER v19.2',
/* originating_system */ 'Autodesk Inventor 2023',
/* authorisation */ '');

FILE_SCHEMA (('AUTOMOTIVE_DESIGN { 1 0 10303 214 3 1 1 }'));
ENDSEC;

DATA;
#10=MECHANICAL_DESIGN_GEOMETRIC_PRESENTATION_REPRESENTATION('',(#231,#232,
#233,#234,#235,#236,#237,#238,#239,#240,#241,#242,#243,#244,#245,#246,#247,
#248,#249),#504);
#11=SHAPE_REPRESENTATION_RELATIONSHIP('SRR','None',#511,#12);
#12=ADVANCED_BREP_SHAPE_REPRESENTATION('',(#13),#503);
#13=MANIFOLD_SOLID_BREP('Volumenk\X\F6rper2',#268);
#14=FACE_BOUND('',#72,.T.);
#15=FACE_BOUND('',#77,.T.);
#16=TOROIDAL_SURFACE('',#303,50.4,6.);
#17=TOROIDAL_SURFACE('',#305,59.4,7.);
#18=TOROIDAL_SURFACE('',#318,59.4,5.1);
#19=TOROIDAL_SURFACE('',#323,56.4,2.);
#20=TOROIDAL_SURFACE('',#328,50.4,4.);
#21=TOROIDAL_SURFACE('',#332,54.,2.);
#22=CONICAL_SURFACE('',#301,56.4,0.698131700798);
#23=CONICAL_SURFACE('',#310,1.,0.785398163397);
#24=CONICAL_SURFACE('',#314,1.,0.785398163397);
#25=CONICAL_SURFACE('',#321,54.8679111138,0.698131700798);
#26=LINE('',#440,#34);
#27=LINE('',#447,#35);
#28=LINE('',#452,#36);
#29=LINE('',#465,#37);
#30=LINE('',#469,#38);
#31=LINE('',#472,#39);
#32=LINE('',#484,#40);
#33=LINE('',#492,#41);
#34=VECTOR('',#346,54.);
#35=VECTOR('',#355,56.4);
#36=VECTOR('',#362,56.4);
#37=VECTOR('',#381,1.);
#38=VECTOR('',#386,55.2);
#39=VECTOR('',#389,1.);
#40=VECTOR('',#406,54.8679111138);
#41=VECTOR('',#417,54.4);
#42=CYLINDRICAL_SURFACE('',#293,54.);
#43=CYLINDRICAL_SURFACE('',#298,56.4);
#44=CYLINDRICAL_SURFACE('',#312,55.2);
#45=CYLINDRICAL_SURFACE('',#326,54.4);
#46=FACE_OUTER_BOUND('',#64,.T.);
#47=FACE_OUTER_BOUND('',#65,.T.);
#48=FACE_OUTER_BOUND('',#66,.T.);
#49=FACE_OUTER_BOUND('',#67,.T.);
#50=FACE_OUTER_BOUND('',#68,.T.);
#51=FACE_OUTER_BOUND('',#69,.T.);
#52=FACE_OUTER_BOUND('',#70,.T.);
#53=FACE_OUTER_BOUND('',#71,.T.);
#54=FACE_OUTER_BOUND('',#73,.T.);
#55=FACE_OUTER_BOUND('',#74,.T.);
#56=FACE_OUTER_BOUND('',#75,.T.);
#57=FACE_OUTER_BOUND('',#76,.T.);
#58=FACE_OUTER_BOUND('',#78,.T.);
#59=FACE_OUTER_BOUND('',#79,.T.);
#60=FACE_OUTER_BOUND('',#80,.T.);
#61=FACE_OUTER_BOUND('',#81,.T.);
#62=FACE_OUTER_BOUND('',#82,.T.);
#63=FACE_OUTER_BOUND('',#83,.T.);
#64=EDGE_LOOP('',(#161));
#65=EDGE_LOOP('',(#162,#163,#164,#165,#166));
#66=EDGE_LOOP('',(#167));
#67=EDGE_LOOP('',(#168,#169,#170,#171));
#68=EDGE_LOOP('',(#172,#173,#174,#175));
#69=EDGE_LOOP('',(#176,#177,#178,#179,#180));
#70=EDGE_LOOP('',(#181,#182,#183,#184));
#71=EDGE_LOOP('',(#185));
#72=EDGE_LOOP('',(#186));
#73=EDGE_LOOP('',(#187,#188,#189,#190));
#74=EDGE_LOOP('',(#191,#192,#193,#194));
#75=EDGE_LOOP('',(#195,#196,#197,#198));
#76=EDGE_LOOP('',(#199));
#77=EDGE_LOOP('',(#200));
#78=EDGE_LOOP('',(#201,#202,#203,#204));
#79=EDGE_LOOP('',(#205,#206,#207,#208));
#80=EDGE_LOOP('',(#209,#210,#211,#212));
#81=EDGE_LOOP('',(#213,#214,#215,#216));
#82=EDGE_LOOP('',(#217,#218,#219,#220,#221));
#83=EDGE_LOOP('',(#222,#223,#224,#225,#226));
#84=CIRCLE('',#292,52.);
#85=CIRCLE('',#294,54.);
#86=CIRCLE('',#295,54.);
#87=CIRCLE('',#296,54.);
#88=CIRCLE('',#299,56.4);
#89=CIRCLE('',#300,56.4);
#90=CIRCLE('',#302,64.7623111018);
#91=CIRCLE('',#304,6.);
#92=CIRCLE('',#306,59.4);
#93=CIRCLE('',#307,7.);
#94=CIRCLE('',#309,55.6);
#95=CIRCLE('',#311,55.2);
#96=CIRCLE('',#313,55.2);
#97=CIRCLE('',#315,55.6);
#98=CIRCLE('',#317,59.4);
#99=CIRCLE('',#319,63.3068266599);
#100=CIRCLE('',#320,5.1);
#101=CIRCLE('',#322,54.8679111138);
#102=CIRCLE('',#324,54.4);
#103=CIRCLE('',#325,2.);
#104=CIRCLE('',#327,54.4);
#105=CIRCLE('',#329,52.8);
#106=CIRCLE('',#330,52.8);
#107=CIRCLE('',#331,4.);
#108=CIRCLE('',#333,2.);
#109=VERTEX_POINT('',#432);
#110=VERTEX_POINT('',#435);
#111=VERTEX_POINT('',#436);
#112=VERTEX_POINT('',#439);
#113=VERTEX_POINT('',#444);
#114=VERTEX_POINT('',#446);
#115=VERTEX_POINT('',#450);
#116=VERTEX_POINT('',#456);
#117=VERTEX_POINT('',#460);
#118=VERTEX_POINT('',#463);
#119=VERTEX_POINT('',#467);
#120=VERTEX_POINT('',#471);
#121=VERTEX_POINT('',#475);
#122=VERTEX_POINT('',#478);
#123=VERTEX_POINT('',#482);
#124=VERTEX_POINT('',#486);
#125=VERTEX_POINT('',#490);
#126=VERTEX_POINT('',#494);
#127=VERTEX_POINT('',#495);
#128=EDGE_CURVE('',#109,#109,#84,.F.);
#129=EDGE_CURVE('',#110,#111,#85,.T.);
#130=EDGE_CURVE('',#111,#110,#86,.T.);
#131=EDGE_CURVE('',#111,#112,#26,.T.);
#132=EDGE_CURVE('',#112,#112,#87,.T.);
#133=EDGE_CURVE('',#113,#113,#88,.T.);
#134=EDGE_CURVE('',#113,#114,#27,.T.);
#135=EDGE_CURVE('',#114,#114,#89,.T.);
#136=EDGE_CURVE('',#115,#115,#90,.T.);
#137=EDGE_CURVE('',#115,#113,#28,.T.);
#138=EDGE_CURVE('',#114,#110,#91,.T.);
#139=EDGE_CURVE('',#116,#116,#92,.T.);
#140=EDGE_CURVE('',#116,#115,#93,.T.);
#141=EDGE_CURVE('',#117,#117,#94,.T.);
#142=EDGE_CURVE('',#118,#118,#95,.T.);
#143=EDGE_CURVE('',#118,#117,#29,.T.);
#144=EDGE_CURVE('',#119,#119,#96,.T.);
#145=EDGE_CURVE('',#119,#118,#30,.T.);
#146=EDGE_CURVE('',#119,#120,#31,.T.);
#147=EDGE_CURVE('',#120,#120,#97,.T.);
#148=EDGE_CURVE('',#121,#121,#98,.T.);
#149=EDGE_CURVE('',#122,#122,#99,.T.);
#150=EDGE_CURVE('',#122,#121,#100,.T.);
#151=EDGE_CURVE('',#123,#123,#101,.T.);
#152=EDGE_CURVE('',#123,#122,#32,.T.);
#153=EDGE_CURVE('',#124,#124,#102,.T.);
#154=EDGE_CURVE('',#124,#123,#103,.T.);
#155=EDGE_CURVE('',#125,#125,#104,.T.);
#156=EDGE_CURVE('',#125,#124,#33,.T.);
#157=EDGE_CURVE('',#126,#127,#105,.T.);
#158=EDGE_CURVE('',#127,#126,#106,.T.);
#159=EDGE_CURVE('',#127,#125,#107,.T.);
#160=EDGE_CURVE('',#126,#109,#108,.T.);
#161=ORIENTED_EDGE('',*,*,#128,.T.);
#162=ORIENTED_EDGE('',*,*,#129,.F.);
#163=ORIENTED_EDGE('',*,*,#130,.F.);
#164=ORIENTED_EDGE('',*,*,#131,.T.);
#165=ORIENTED_EDGE('',*,*,#132,.T.);
#166=ORIENTED_EDGE('',*,*,#131,.F.);
#167=ORIENTED_EDGE('',*,*,#132,.F.);
#168=ORIENTED_EDGE('',*,*,#133,.F.);
#169=ORIENTED_EDGE('',*,*,#134,.T.);
#170=ORIENTED_EDGE('',*,*,#135,.T.);
#171=ORIENTED_EDGE('',*,*,#134,.F.);
#172=ORIENTED_EDGE('',*,*,#136,.F.);
#173=ORIENTED_EDGE('',*,*,#137,.T.);
#174=ORIENTED_EDGE('',*,*,#133,.T.);
#175=ORIENTED_EDGE('',*,*,#137,.F.);
#176=ORIENTED_EDGE('',*,*,#135,.F.);
#177=ORIENTED_EDGE('',*,*,#138,.T.);
#178=ORIENTED_EDGE('',*,*,#129,.T.);
#179=ORIENTED_EDGE('',*,*,#130,.T.);
#180=ORIENTED_EDGE('',*,*,#138,.F.);
#181=ORIENTED_EDGE('',*,*,#139,.F.);
#182=ORIENTED_EDGE('',*,*,#140,.T.);
#183=ORIENTED_EDGE('',*,*,#136,.T.);
#184=ORIENTED_EDGE('',*,*,#140,.F.);
#185=ORIENTED_EDGE('',*,*,#139,.T.);
#186=ORIENTED_EDGE('',*,*,#141,.F.);
#187=ORIENTED_EDGE('',*,*,#142,.F.);
#188=ORIENTED_EDGE('',*,*,#143,.T.);
#189=ORIENTED_EDGE('',*,*,#141,.T.);
#190=ORIENTED_EDGE('',*,*,#143,.F.);
#191=ORIENTED_EDGE('',*,*,#144,.F.);
#192=ORIENTED_EDGE('',*,*,#145,.T.);
#193=ORIENTED_EDGE('',*,*,#142,.T.);
#194=ORIENTED_EDGE('',*,*,#145,.F.);
#195=ORIENTED_EDGE('',*,*,#144,.T.);
#196=ORIENTED_EDGE('',*,*,#146,.T.);
#197=ORIENTED_EDGE('',*,*,#147,.F.);
#198=ORIENTED_EDGE('',*,*,#146,.F.);
#199=ORIENTED_EDGE('',*,*,#148,.F.);
#200=ORIENTED_EDGE('',*,*,#147,.T.);
#201=ORIENTED_EDGE('',*,*,#149,.F.);
#202=ORIENTED_EDGE('',*,*,#150,.T.);
#203=ORIENTED_EDGE('',*,*,#148,.T.);
#204=ORIENTED_EDGE('',*,*,#150,.F.);
#205=ORIENTED_EDGE('',*,*,#151,.F.);
#206=ORIENTED_EDGE('',*,*,#152,.T.);
#207=ORIENTED_EDGE('',*,*,#149,.T.);
#208=ORIENTED_EDGE('',*,*,#152,.F.);
#209=ORIENTED_EDGE('',*,*,#153,.F.);
#210=ORIENTED_EDGE('',*,*,#154,.T.);
#211=ORIENTED_EDGE('',*,*,#151,.T.);
#212=ORIENTED_EDGE('',*,*,#154,.F.);
#213=ORIENTED_EDGE('',*,*,#155,.F.);
#214=ORIENTED_EDGE('',*,*,#156,.T.);
#215=ORIENTED_EDGE('',*,*,#153,.T.);
#216=ORIENTED_EDGE('',*,*,#156,.F.);
#217=ORIENTED_EDGE('',*,*,#157,.F.);
#218=ORIENTED_EDGE('',*,*,#158,.F.);
#219=ORIENTED_EDGE('',*,*,#159,.T.);
#220=ORIENTED_EDGE('',*,*,#155,.T.);
#221=ORIENTED_EDGE('',*,*,#159,.F.);
#222=ORIENTED_EDGE('',*,*,#157,.T.);
#223=ORIENTED_EDGE('',*,*,#158,.T.);
#224=ORIENTED_EDGE('',*,*,#160,.T.);
#225=ORIENTED_EDGE('',*,*,#128,.F.);
#226=ORIENTED_EDGE('',*,*,#160,.F.);
#227=PLANE('',#291);
#228=PLANE('',#297);
#229=PLANE('',#308);
#230=PLANE('',#316);
#231=STYLED_ITEM('',(#520),#250);
#232=STYLED_ITEM('',(#520),#251);
#233=STYLED_ITEM('',(#520),#252);
#234=STYLED_ITEM('',(#520),#253);
#235=STYLED_ITEM('',(#520),#254);
#236=STYLED_ITEM('',(#520),#255);
#237=STYLED_ITEM('',(#520),#256);
#238=STYLED_ITEM('',(#520),#257);
#239=STYLED_ITEM('',(#520),#258);
#240=STYLED_ITEM('',(#520),#259);
#241=STYLED_ITEM('',(#520),#260);
#242=STYLED_ITEM('',(#520),#261);
#243=STYLED_ITEM('',(#520),#262);
#244=STYLED_ITEM('',(#520),#263);
#245=STYLED_ITEM('',(#520),#264);
#246=STYLED_ITEM('',(#520),#265);
#247=STYLED_ITEM('',(#520),#266);
#248=STYLED_ITEM('',(#520),#267);
#249=STYLED_ITEM('',(#520),#13);
#250=ADVANCED_FACE('',(#46),#227,.T.);
#251=ADVANCED_FACE('',(#47),#42,.T.);
#252=ADVANCED_FACE('',(#48),#228,.F.);
#253=ADVANCED_FACE('',(#49),#43,.T.);
#254=ADVANCED_FACE('',(#50),#22,.T.);
#255=ADVANCED_FACE('',(#51),#16,.T.);
#256=ADVANCED_FACE('',(#52),#17,.T.);
#257=ADVANCED_FACE('',(#53,#14),#229,.T.);
#258=ADVANCED_FACE('',(#54),#23,.F.);
#259=ADVANCED_FACE('',(#55),#44,.F.);
#260=ADVANCED_FACE('',(#56),#24,.F.);
#261=ADVANCED_FACE('',(#57,#15),#230,.F.);
#262=ADVANCED_FACE('',(#58),#18,.F.);
#263=ADVANCED_FACE('',(#59),#25,.F.);
#264=ADVANCED_FACE('',(#60),#19,.T.);
#265=ADVANCED_FACE('',(#61),#45,.F.);
#266=ADVANCED_FACE('',(#62),#20,.F.);
#267=ADVANCED_FACE('',(#63),#21,.T.);
#268=CLOSED_SHELL('',(#250,#251,#252,#253,#254,#255,#256,#257,#258,#259,
#260,#261,#262,#263,#264,#265,#266,#267));
#269=DERIVED_UNIT_ELEMENT(#272,1.);
#270=DERIVED_UNIT_ELEMENT(#506,-3.);
#271=DIMENSIONAL_EXPONENTS(0.,1.,0.,0.,0.,0.,0.);
#272=(
CONVERSION_BASED_UNIT('gram',#274)
MASS_UNIT()
NAMED_UNIT(#271)
);
#273=(
MASS_UNIT()
NAMED_UNIT(*)
SI_UNIT(.KILO.,.GRAM.)
);
#274=MASS_MEASURE_WITH_UNIT(MASS_MEASURE(0.001),#273);
#275=DERIVED_UNIT((#269,#270));
#276=MEASURE_REPRESENTATION_ITEM('density measure',
POSITIVE_RATIO_MEASURE(8.),#275);
#277=PROPERTY_DEFINITION_REPRESENTATION(#282,#279);
#278=PROPERTY_DEFINITION_REPRESENTATION(#283,#280);
#279=REPRESENTATION('material name',(#281),#503);
#280=REPRESENTATION('density',(#276),#503);
#281=DESCRIPTIVE_REPRESENTATION_ITEM('Edelstahl','Edelstahl');
#282=PROPERTY_DEFINITION('material property','material name',#513);
#283=PROPERTY_DEFINITION('material property','density of part',#513);
#284=DATE_TIME_ROLE('creation_date');
#285=APPLIED_DATE_AND_TIME_ASSIGNMENT(#286,#284,(#513));
#286=DATE_AND_TIME(#287,#288);
#287=CALENDAR_DATE(2023,8,9);
#288=LOCAL_TIME(0,0,0.,#289);
#289=COORDINATED_UNIVERSAL_TIME_OFFSET(0,0,.BEHIND.);
#290=AXIS2_PLACEMENT_3D('',#430,#334,#335);
#291=AXIS2_PLACEMENT_3D('',#431,#336,#337);
#292=AXIS2_PLACEMENT_3D('',#433,#338,#339);
#293=AXIS2_PLACEMENT_3D('',#434,#340,#341);
#294=AXIS2_PLACEMENT_3D('',#437,#342,#343);
#295=AXIS2_PLACEMENT_3D('',#438,#344,#345);
#296=AXIS2_PLACEMENT_3D('',#441,#347,#348);
#297=AXIS2_PLACEMENT_3D('',#442,#349,#350);
#298=AXIS2_PLACEMENT_3D('',#443,#351,#352);
#299=AXIS2_PLACEMENT_3D('',#445,#353,#354);
#300=AXIS2_PLACEMENT_3D('',#448,#356,#357);
#301=AXIS2_PLACEMENT_3D('',#449,#358,#359);
#302=AXIS2_PLACEMENT_3D('',#451,#360,#361);
#303=AXIS2_PLACEMENT_3D('',#453,#363,#364);
#304=AXIS2_PLACEMENT_3D('',#454,#365,#366);
#305=AXIS2_PLACEMENT_3D('',#455,#367,#368);
#306=AXIS2_PLACEMENT_3D('',#457,#369,#370);
#307=AXIS2_PLACEMENT_3D('',#458,#371,#372);
#308=AXIS2_PLACEMENT_3D('',#459,#373,#374);
#309=AXIS2_PLACEMENT_3D('',#461,#375,#376);
#310=AXIS2_PLACEMENT_3D('',#462,#377,#378);
#311=AXIS2_PLACEMENT_3D('',#464,#379,#380);
#312=AXIS2_PLACEMENT_3D('',#466,#382,#383);
#313=AXIS2_PLACEMENT_3D('',#468,#384,#385);
#314=AXIS2_PLACEMENT_3D('',#470,#387,#388);
#315=AXIS2_PLACEMENT_3D('',#473,#390,#391);
#316=AXIS2_PLACEMENT_3D('',#474,#392,#393);
#317=AXIS2_PLACEMENT_3D('',#476,#394,#395);
#318=AXIS2_PLACEMENT_3D('',#477,#396,#397);
#319=AXIS2_PLACEMENT_3D('',#479,#398,#399);
#320=AXIS2_PLACEMENT_3D('',#480,#400,#401);
#321=AXIS2_PLACEMENT_3D('',#481,#402,#403);
#322=AXIS2_PLACEMENT_3D('',#483,#404,#405);
#323=AXIS2_PLACEMENT_3D('',#485,#407,#408);
#324=AXIS2_PLACEMENT_3D('',#487,#409,#410);
#325=AXIS2_PLACEMENT_3D('',#488,#411,#412);
#326=AXIS2_PLACEMENT_3D('',#489,#413,#414);
#327=AXIS2_PLACEMENT_3D('',#491,#415,#416);
#328=AXIS2_PLACEMENT_3D('',#493,#418,#419);
#329=AXIS2_PLACEMENT_3D('',#496,#420,#421);
#330=AXIS2_PLACEMENT_3D('',#497,#422,#423);
#331=AXIS2_PLACEMENT_3D('',#498,#424,#425);
#332=AXIS2_PLACEMENT_3D('',#499,#426,#427);
#333=AXIS2_PLACEMENT_3D('',#500,#428,#429);
#334=DIRECTION('axis',(0.,0.,1.));
#335=DIRECTION('refdir',(1.,0.,0.));
#336=DIRECTION('center_axis',(-1.,0.,0.));
#337=DIRECTION('ref_axis',(0.,0.,1.));
#338=DIRECTION('center_axis',(1.,3.38799488795E-18,2.00972955776E-18));
#339=DIRECTION('ref_axis',(3.38799488795E-18,-1.,0.));
#340=DIRECTION('center_axis',(-1.,0.,0.));
#341=DIRECTION('ref_axis',(0.,0.,1.));
#342=DIRECTION('center_axis',(-1.,0.,0.));
#343=DIRECTION('ref_axis',(0.,1.,0.));
#344=DIRECTION('center_axis',(-1.,0.,0.));
#345=DIRECTION('ref_axis',(0.,1.,0.));
#346=DIRECTION('',(1.,0.,0.));
#347=DIRECTION('center_axis',(-1.,0.,0.));
#348=DIRECTION('ref_axis',(0.,0.,-1.));
#349=DIRECTION('center_axis',(-1.,0.,0.));
#350=DIRECTION('ref_axis',(0.,0.,1.));
#351=DIRECTION('center_axis',(-1.,0.,0.));
#352=DIRECTION('ref_axis',(0.,0.877582561890372,-0.479425538604204));
#353=DIRECTION('center_axis',(-1.,0.,0.));
#354=DIRECTION('ref_axis',(0.,1.,0.));
#355=DIRECTION('',(1.,0.,0.));
#356=DIRECTION('center_axis',(-1.,0.,0.));
#357=DIRECTION('ref_axis',(0.,1.,0.));
#358=DIRECTION('center_axis',(-1.,0.,0.));
#359=DIRECTION('ref_axis',(0.,0.877582561890372,-0.479425538604204));
#360=DIRECTION('center_axis',(-1.,0.,0.));
#361=DIRECTION('ref_axis',(0.,1.,0.));
#362=DIRECTION('',(0.766044443118806,0.564099197260282,-0.308168795982177));
#363=DIRECTION('center_axis',(-1.,0.,0.));
#364=DIRECTION('ref_axis',(0.,0.877582561890372,-0.479425538604204));
#365=DIRECTION('center_axis',(0.,0.479425538604204,0.877582561890372));
#366=DIRECTION('ref_axis',(0.,-0.877582561890372,0.479425538604204));
#367=DIRECTION('center_axis',(-1.,0.,0.));
#368=DIRECTION('ref_axis',(0.,0.877582561890372,-0.479425538604204));
#369=DIRECTION('center_axis',(-1.,0.,0.));
#370=DIRECTION('ref_axis',(0.,1.,0.));
#371=DIRECTION('center_axis',(0.,0.479425538604204,0.877582561890372));
#372=DIRECTION('ref_axis',(0.,-0.877582561890372,0.479425538604204));
#373=DIRECTION('center_axis',(-1.,0.,0.));
#374=DIRECTION('ref_axis',(0.,1.,0.));
#375=DIRECTION('center_axis',(-1.,0.,0.));
#376=DIRECTION('ref_axis',(0.,1.,0.));
#377=DIRECTION('center_axis',(-1.,2.6645352591E-14,3.5527136788E-14));
#378=DIRECTION('ref_axis',(6.35088009962993E-15,0.877582561890372,-0.479425538604204));
#379=DIRECTION('center_axis',(-1.,4.5117273828E-15,1.61291549317E-14));
#380=DIRECTION('ref_axis',(4.5117273828E-15,1.,0.));
#381=DIRECTION('',(-0.707106781186869,-0.620544580563448,0.339005049420919));
#382=DIRECTION('center_axis',(-1.,0.,0.));
#383=DIRECTION('ref_axis',(0.,0.877582561890372,-0.479425538604204));
#384=DIRECTION('center_axis',(-1.,0.,0.));
#385=DIRECTION('ref_axis',(0.,1.,0.));
#386=DIRECTION('',(-1.,0.,0.));
#387=DIRECTION('center_axis',(1.,3.5527136788E-14,0.));
#388=DIRECTION('ref_axis',(-3.11779957190427E-14,0.877582561890372,-0.479425538604204));
#389=DIRECTION('',(0.707106781186887,-0.620544580563442,0.339005049420893));
#390=DIRECTION('center_axis',(-1.,1.15816763082E-14,5.41381698422E-14));
#391=DIRECTION('ref_axis',(1.15816763082E-14,1.,0.));
#392=DIRECTION('center_axis',(-1.,0.,0.));
#393=DIRECTION('ref_axis',(0.,1.,0.));
#394=DIRECTION('center_axis',(-1.,0.,0.));
#395=DIRECTION('ref_axis',(0.,1.,0.));
#396=DIRECTION('center_axis',(-1.,0.,0.));
#397=DIRECTION('ref_axis',(0.,0.877582561890372,-0.479425538604204));
#398=DIRECTION('center_axis',(-1.,0.,0.));
#399=DIRECTION('ref_axis',(0.,1.,0.));
#400=DIRECTION('center_axis',(0.,-0.479425538604204,-0.877582561890372));
#401=DIRECTION('ref_axis',(0.,-0.877582561890372,0.479425538604204));
#402=DIRECTION('center_axis',(-1.,0.,0.));
#403=DIRECTION('ref_axis',(0.,0.877582561890372,-0.479425538604204));
#404=DIRECTION('center_axis',(-1.,0.,0.));
#405=DIRECTION('ref_axis',(0.,1.,0.));
#406=DIRECTION('',(-0.766044443118806,-0.564099197260282,0.308168795982176));
#407=DIRECTION('center_axis',(-1.,0.,0.));
#408=DIRECTION('ref_axis',(0.,0.877582561890372,-0.479425538604204));
#409=DIRECTION('center_axis',(-1.,0.,0.));
#410=DIRECTION('ref_axis',(0.,1.,0.));
#411=DIRECTION('center_axis',(0.,0.479425538604204,0.877582561890372));
#412=DIRECTION('ref_axis',(0.,-0.877582561890372,0.479425538604204));
#413=DIRECTION('center_axis',(-1.,0.,0.));
#414=DIRECTION('ref_axis',(0.,0.877582561890372,-0.479425538604204));
#415=DIRECTION('center_axis',(-1.,0.,0.));
#416=DIRECTION('ref_axis',(0.,1.,0.));
#417=DIRECTION('',(-1.,0.,0.));
#418=DIRECTION('center_axis',(-1.,0.,0.));
#419=DIRECTION('ref_axis',(0.,0.877582561890372,-0.479425538604204));
#420=DIRECTION('center_axis',(-1.,0.,0.));
#421=DIRECTION('ref_axis',(0.,1.,0.));
#422=DIRECTION('center_axis',(-1.,0.,0.));
#423=DIRECTION('ref_axis',(0.,1.,0.));
#424=DIRECTION('center_axis',(0.,-0.479425538604204,-0.877582561890372));
#425=DIRECTION('ref_axis',(0.,-0.877582561890372,0.479425538604204));
#426=DIRECTION('center_axis',(1.,-1.96177377919E-18,6.89551361657E-18));
#427=DIRECTION('ref_axis',(-7.93016446160826E-18,6.148927521E-16,1.));
#428=DIRECTION('center_axis',(1.96177377919E-18,1.,-4.92428072185265E-16));
#429=DIRECTION('ref_axis',(7.43452918275775E-18,-4.92428072185265E-16,-1.));
#430=CARTESIAN_POINT('',(0.,0.,0.));
#431=CARTESIAN_POINT('Origin',(-1.2,0.,0.));
#432=CARTESIAN_POINT('',(-1.2,-1.67244755566E-14,-52.));
#433=CARTESIAN_POINT('Origin',(-1.2,8.29819419012E-34,-1.7763568394E-15));
#434=CARTESIAN_POINT('Origin',(-0.2,0.,0.));
#435=CARTESIAN_POINT('',(-1.2,-47.3894583420801,25.888979084627));
#436=CARTESIAN_POINT('',(-1.2,-6.61309271539571E-15,-54.));
#437=CARTESIAN_POINT('Origin',(-1.2,0.,0.));
#438=CARTESIAN_POINT('Origin',(-1.2,0.,0.));
#439=CARTESIAN_POINT('',(0.8,6.6130927154E-15,-54.));
#440=CARTESIAN_POINT('',(-0.2,-6.61309271539571E-15,-54.));
#441=CARTESIAN_POINT('Origin',(0.8,0.,0.));
#442=CARTESIAN_POINT('Origin',(0.8,0.,0.));
#443=CARTESIAN_POINT('Origin',(-1.,0.,0.));
#444=CARTESIAN_POINT('',(-59.5346724342,-49.495656490617,27.0396003772771));
#445=CARTESIAN_POINT('Origin',(-59.5346724342,0.,0.));
#446=CARTESIAN_POINT('',(-6.,-49.495656490617,27.0396003772771));
#447=CARTESIAN_POINT('',(-1.,-49.495656490617,27.0396003772771));
#448=CARTESIAN_POINT('Origin',(-6.,0.,0.));
#449=CARTESIAN_POINT('Origin',(-59.5346724342,0.,0.));
#450=CARTESIAN_POINT('',(-69.5004867321815,-56.8342748906783,31.048705881244));
#451=CARTESIAN_POINT('Origin',(-69.5004867322,0.,0.));
#452=CARTESIAN_POINT('',(-59.5346724342,-49.495656490617,27.0396003772771));
#453=CARTESIAN_POINT('Origin',(-6.,0.,0.));
#454=CARTESIAN_POINT('Origin',(-6.,-44.2301611192748,24.1630471456519));
#455=CARTESIAN_POINT('Origin',(-74.,0.,0.));
#456=CARTESIAN_POINT('',(-81.,-52.1284041762881,28.4778769930897));
#457=CARTESIAN_POINT('Origin',(-81.,0.,0.));
#458=CARTESIAN_POINT('Origin',(-74.,-52.1284041762881,28.4778769930897));
#459=CARTESIAN_POINT('Origin',(-81.,55.2,0.));
#460=CARTESIAN_POINT('',(-81.,-48.7935911741,26.6560586047));
#461=CARTESIAN_POINT('Origin',(-81.,-7.1054273576E-15,1.06581410364E-14));
#462=CARTESIAN_POINT('Origin',(-26.4000000000009,-1.44062539674898E-12,
-1.91846538655197E-12));
#463=CARTESIAN_POINT('',(-80.6,-48.4425574163,26.464289731));
#464=CARTESIAN_POINT('Origin',(-80.6,-1.42108547154E-14,-7.1054273576E-15));
#465=CARTESIAN_POINT('',(-26.4000000000009,-0.877582561891813,0.479425538602285));
#466=CARTESIAN_POINT('Origin',(-1.,0.,0.));
#467=CARTESIAN_POINT('',(-79.5,-48.4425574163,26.464289731));
#468=CARTESIAN_POINT('Origin',(-79.5,0.,0.));
#469=CARTESIAN_POINT('',(-1.,-48.4425574163486,26.464289730952));
#470=CARTESIAN_POINT('Origin',(-133.699999999999,-1.92557081391197E-12,
7.1054273576E-15));
#471=CARTESIAN_POINT('',(-79.1,-48.7935900944,26.6560605811));
#472=CARTESIAN_POINT('',(-133.699999999999,-0.877582561892298,0.479425538604211));
#473=CARTESIAN_POINT('Origin',(-79.1,-3.5527136788E-15,-2.84217094304E-14));
#474=CARTESIAN_POINT('Origin',(-79.1,59.4,0.));
#475=CARTESIAN_POINT('',(-79.1,-52.1284041763,28.4778769931));
#476=CARTESIAN_POINT('Origin',(-79.1,0.,0.));
#477=CARTESIAN_POINT('Origin',(-74.,0.,0.));
#478=CARTESIAN_POINT('',(-70.7217831906,-55.5569671254,30.3509094687));
#479=CARTESIAN_POINT('Origin',(-70.7217831906,0.,0.));
#480=CARTESIAN_POINT('Origin',(-74.,-52.1284041762881,28.4778769930897));
#481=CARTESIAN_POINT('Origin',(-60.6646752709,0.,0.));
#482=CARTESIAN_POINT('',(-60.6646752709,-48.1511220008,26.3050778378));
#483=CARTESIAN_POINT('Origin',(-60.6646752709,0.,0.));
#484=CARTESIAN_POINT('',(-60.6646752709,-48.1511220008218,26.3050778378211));
#485=CARTESIAN_POINT('Origin',(-59.3791000515,0.,0.));
#486=CARTESIAN_POINT('',(-59.3791000515,-47.7404913668,26.0807493001));
#487=CARTESIAN_POINT('Origin',(-59.3791000515,0.,0.));
#488=CARTESIAN_POINT('Origin',(-59.3791000515,-49.495656490617,27.0396003772771));
#489=CARTESIAN_POINT('Origin',(-1.,0.,0.));
#490=CARTESIAN_POINT('',(-6.,-47.7404913668,26.0807493001));
#491=CARTESIAN_POINT('Origin',(-6.,0.,0.));
#492=CARTESIAN_POINT('',(-1.,-47.7404913668363,26.0807493000687));
#493=CARTESIAN_POINT('Origin',(-6.,0.,0.));
#494=CARTESIAN_POINT('',(-2.8,1.49570226898E-14,-52.8));
#495=CARTESIAN_POINT('',(-2.8,-46.3363592678116,25.313668438302));
#496=CARTESIAN_POINT('Origin',(-2.8,0.,0.));
#497=CARTESIAN_POINT('Origin',(-2.8,0.,0.));
#498=CARTESIAN_POINT('Origin',(-6.,-44.2301611192747,24.1630471456519));
#499=CARTESIAN_POINT('Origin',(-1.2,4.97379915032E-14,-4.26325641456E-14));
#500=CARTESIAN_POINT('Origin',(-1.2,2.31468756051957E-14,-54.));
#501=UNCERTAINTY_MEASURE_WITH_UNIT(LENGTH_MEASURE(0.01),#505,
'DISTANCE_ACCURACY_VALUE',
'Maximum model space distance between geometric entities at asserted c
onnectivities');
#502=UNCERTAINTY_MEASURE_WITH_UNIT(LENGTH_MEASURE(0.01),#505,
'DISTANCE_ACCURACY_VALUE',
'Maximum model space distance between geometric entities at asserted c
onnectivities');
#503=(
GEOMETRIC_REPRESENTATION_CONTEXT(3)
GLOBAL_UNCERTAINTY_ASSIGNED_CONTEXT((#501))
GLOBAL_UNIT_ASSIGNED_CONTEXT((#505,#507,#508))
REPRESENTATION_CONTEXT('','3D')
);
#504=(
GEOMETRIC_REPRESENTATION_CONTEXT(3)
GLOBAL_UNCERTAINTY_ASSIGNED_CONTEXT((#502))
GLOBAL_UNIT_ASSIGNED_CONTEXT((#505,#507,#508))
REPRESENTATION_CONTEXT('','3D')
);
#505=(
LENGTH_UNIT()
NAMED_UNIT(*)
SI_UNIT(.MILLI.,.METRE.)
);
#506=(
LENGTH_UNIT()
NAMED_UNIT(*)
SI_UNIT(.CENTI.,.METRE.)
);
#507=(
NAMED_UNIT(*)
PLANE_ANGLE_UNIT()
SI_UNIT($,.RADIAN.)
);
#508=(
NAMED_UNIT(*)
SI_UNIT($,.STERADIAN.)
SOLID_ANGLE_UNIT()
);
#509=SHAPE_DEFINITION_REPRESENTATION(#510,#511);
#510=PRODUCT_DEFINITION_SHAPE('',$,#513);
#511=SHAPE_REPRESENTATION('',(#290),#503);
#512=PRODUCT_DEFINITION_CONTEXT('part definition',#517,'design');
#513=PRODUCT_DEFINITION('tmp6331.tmp','tmp6331.tmp',#514,#512);
#514=PRODUCT_DEFINITION_FORMATION('',$,#519);
#515=PRODUCT_RELATED_PRODUCT_CATEGORY('tmp6331.tmp','tmp6331.tmp',(#519));
#516=APPLICATION_PROTOCOL_DEFINITION('international standard',
'automotive_design',2009,#517);
#517=APPLICATION_CONTEXT(
'Core Data for Automotive Mechanical Design Process');
#518=PRODUCT_CONTEXT('part definition',#517,'mechanical');
#519=PRODUCT('tmp6331.tmp','tmp6331.tmp',$,(#518));
#520=PRESENTATION_STYLE_ASSIGNMENT((#521));
#521=SURFACE_STYLE_USAGE(.BOTH.,#524);
#522=SURFACE_STYLE_RENDERING_WITH_PROPERTIES($,#528,(#523));
#523=SURFACE_STYLE_TRANSPARENT(0.);
#524=SURFACE_SIDE_STYLE('',(#525,#522));
#525=SURFACE_STYLE_FILL_AREA(#526);
#526=FILL_AREA_STYLE('',(#527));
#527=FILL_AREA_STYLE_COLOUR('',#528);
#528=COLOUR_RGB('',0.745098039215686,0.737254901960784,0.729411764705882);
ENDSEC;
END-ISO-10303-21;
