ISO-10303-21;
HEADER;
/* Generated by software containing ST-Developer
 * from STEP Tools, Inc. (www.steptools.com) 
 */

FILE_DESCRIPTION(
/* description */ (''),
/* implementation_level */ '2;1');

FILE_NAME(
/* name */ 'Z:\\Geberit\\Export\\NewStep\\34468.stp',
/* time_stamp */ '2014-04-01T20:37:18+02:00',
/* author */ ('bruh'),
/* organization */ (''),
/* preprocessor_version */ 'ST-DEVELOPER v15.2',
/* originating_system */ 'Autodesk Inventor 2014',
/* authorisation */ '');

FILE_SCHEMA (('AUTOMOTIVE_DESIGN { 1 0 10303 214 3 1 1 }'));
ENDSEC;

DATA;
#10=ITEM_DEFINED_TRANSFORMATION($,$,#261,#301);
#11=(
REPRESENTATION_RELATIONSHIP($,$,#481,#482)
REPRESENTATION_RELATIONSHIP_WITH_TRANSFORMATION(#10)
SHAPE_REPRESENTATION_RELATIONSHIP()
);
#12=CONTEXT_DEPENDENT_SHAPE_REPRESENTATION(#11,#480);
#13=NEXT_ASSEMBLY_USAGE_OCCURRENCE('102251:1',$,$,#485,#484,$);
#14=SHAPE_REPRESENTATION_RELATIONSHIP('SRR','None',#481,#15);
#15=ADVANCED_BREP_SHAPE_REPRESENTATION($,(#260),#468);
#16=CONICAL_SURFACE($,#274,27.7,45.);
#17=CONICAL_SURFACE($,#281,28.916044443119,40.0000000000001);
#18=CONICAL_SURFACE($,#291,30.3155777754582,40.);
#19=CONICAL_SURFACE($,#297,27.7,45.);
#20=FACE_BOUND($,#69,.T.);
#21=FACE_BOUND($,#71,.T.);
#22=FACE_BOUND($,#73,.T.);
#23=FACE_BOUND($,#75,.T.);
#24=FACE_BOUND($,#77,.T.);
#25=FACE_BOUND($,#79,.T.);
#26=FACE_BOUND($,#83,.T.);
#27=FACE_BOUND($,#85,.T.);
#28=FACE_BOUND($,#87,.T.);
#29=FACE_BOUND($,#89,.T.);
#30=FACE_BOUND($,#90,.T.);
#31=FACE_BOUND($,#91,.T.);
#32=FACE_BOUND($,#93,.T.);
#33=FACE_BOUND($,#95,.T.);
#34=TOROIDAL_SURFACE($,#271,25.85,1.35);
#35=TOROIDAL_SURFACE($,#279,29.1,2.);
#36=TOROIDAL_SURFACE($,#287,25.85,3.);
#37=TOROIDAL_SURFACE($,#293,29.1,3.5);
#38=CYLINDRICAL_SURFACE($,#266,6.875);
#39=CYLINDRICAL_SURFACE($,#283,27.2);
#40=CYLINDRICAL_SURFACE($,#289,28.85);
#41=CYLINDRICAL_SURFACE($,#299,27.5);
#42=B_SPLINE_CURVE_WITH_KNOTS($,3,(#402,#403,#404,#405),.UNSPECIFIED.,.F.,
 .F.,(4,4),(-0.0190879189499992,0.),.UNSPECIFIED.);
#43=B_SPLINE_CURVE_WITH_KNOTS($,3,(#415,#416,#417,#418),.UNSPECIFIED.,.F.,
 .F.,(4,4),(0.,0.0190879189499991),.UNSPECIFIED.);
#44=FACE_OUTER_BOUND($,#63,.T.);
#45=FACE_OUTER_BOUND($,#64,.T.);
#46=FACE_OUTER_BOUND($,#65,.T.);
#47=FACE_OUTER_BOUND($,#66,.T.);
#48=FACE_OUTER_BOUND($,#67,.T.);
#49=FACE_OUTER_BOUND($,#68,.T.);
#50=FACE_OUTER_BOUND($,#70,.T.);
#51=FACE_OUTER_BOUND($,#72,.T.);
#52=FACE_OUTER_BOUND($,#74,.T.);
#53=FACE_OUTER_BOUND($,#76,.T.);
#54=FACE_OUTER_BOUND($,#78,.T.);
#55=FACE_OUTER_BOUND($,#80,.T.);
#56=FACE_OUTER_BOUND($,#81,.T.);
#57=FACE_OUTER_BOUND($,#82,.T.);
#58=FACE_OUTER_BOUND($,#84,.T.);
#59=FACE_OUTER_BOUND($,#86,.T.);
#60=FACE_OUTER_BOUND($,#88,.T.);
#61=FACE_OUTER_BOUND($,#92,.T.);
#62=FACE_OUTER_BOUND($,#94,.T.);
#63=EDGE_LOOP($,(#173,#174,#175,#176));
#64=EDGE_LOOP($,(#177,#178,#179,#180));
#65=EDGE_LOOP($,(#181,#182,#183,#184));
#66=EDGE_LOOP($,(#185,#186,#187,#188));
#67=EDGE_LOOP($,(#189,#190,#191,#192));
#68=EDGE_LOOP($,(#193,#194,#195,#196));
#69=EDGE_LOOP($,(#197));
#70=EDGE_LOOP($,(#198));
#71=EDGE_LOOP($,(#199));
#72=EDGE_LOOP($,(#200));
#73=EDGE_LOOP($,(#201));
#74=EDGE_LOOP($,(#202));
#75=EDGE_LOOP($,(#203));
#76=EDGE_LOOP($,(#204));
#77=EDGE_LOOP($,(#205));
#78=EDGE_LOOP($,(#206,#207));
#79=EDGE_LOOP($,(#208));
#80=EDGE_LOOP($,(#209));
#81=EDGE_LOOP($,(#210));
#82=EDGE_LOOP($,(#211));
#83=EDGE_LOOP($,(#212));
#84=EDGE_LOOP($,(#213));
#85=EDGE_LOOP($,(#214));
#86=EDGE_LOOP($,(#215));
#87=EDGE_LOOP($,(#216));
#88=EDGE_LOOP($,(#217));
#89=EDGE_LOOP($,(#218));
#90=EDGE_LOOP($,(#219));
#91=EDGE_LOOP($,(#220));
#92=EDGE_LOOP($,(#221));
#93=EDGE_LOOP($,(#222));
#94=EDGE_LOOP($,(#223));
#95=EDGE_LOOP($,(#224));
#96=LINE($,#396,#102);
#97=LINE($,#399,#103);
#98=LINE($,#407,#104);
#99=LINE($,#408,#105);
#100=LINE($,#412,#106);
#101=LINE($,#419,#107);
#102=VECTOR($,#308,20.3970130481412);
#103=VECTOR($,#311,20.3970130481412);
#104=VECTOR($,#314,20.3821027972857);
#105=VECTOR($,#315,0.2);
#106=VECTOR($,#320,0.2);
#107=VECTOR($,#323,20.3821027972857);
#108=CIRCLE($,#263,27.2);
#109=CIRCLE($,#264,6.875);
#110=CIRCLE($,#267,6.875);
#111=CIRCLE($,#270,27.1851029922819);
#112=CIRCLE($,#272,27.2);
#113=CIRCLE($,#273,25.85);
#114=CIRCLE($,#275,27.9);
#115=CIRCLE($,#276,27.5);
#116=CIRCLE($,#278,29.1);
#117=CIRCLE($,#280,30.632088886238);
#118=CIRCLE($,#282,27.2);
#119=CIRCLE($,#286,25.85);
#120=CIRCLE($,#288,28.85);
#121=CIRCLE($,#290,28.85);
#122=CIRCLE($,#292,31.7811555509164);
#123=CIRCLE($,#294,29.1);
#124=CIRCLE($,#296,27.9);
#125=CIRCLE($,#298,27.5);
#126=VERTEX_POINT($,#392);
#127=VERTEX_POINT($,#393);
#128=VERTEX_POINT($,#395);
#129=VERTEX_POINT($,#397);
#130=VERTEX_POINT($,#401);
#131=VERTEX_POINT($,#406);
#132=VERTEX_POINT($,#410);
#133=VERTEX_POINT($,#414);
#134=VERTEX_POINT($,#424);
#135=VERTEX_POINT($,#427);
#136=VERTEX_POINT($,#429);
#137=VERTEX_POINT($,#432);
#138=VERTEX_POINT($,#435);
#139=VERTEX_POINT($,#438);
#140=VERTEX_POINT($,#443);
#141=VERTEX_POINT($,#446);
#142=VERTEX_POINT($,#449);
#143=VERTEX_POINT($,#452);
#144=VERTEX_POINT($,#455);
#145=VERTEX_POINT($,#458);
#146=VERTEX_POINT($,#461);
#147=EDGE_CURVE($,#126,#127,#108,.T.);
#148=EDGE_CURVE($,#128,#127,#96,.T.);
#149=EDGE_CURVE($,#129,#128,#109,.T.);
#150=EDGE_CURVE($,#126,#129,#97,.T.);
#151=EDGE_CURVE($,#130,#127,#42,.T.);
#152=EDGE_CURVE($,#130,#131,#98,.T.);
#153=EDGE_CURVE($,#128,#131,#99,.T.);
#154=EDGE_CURVE($,#131,#132,#110,.T.);
#155=EDGE_CURVE($,#129,#132,#100,.T.);
#156=EDGE_CURVE($,#126,#133,#43,.T.);
#157=EDGE_CURVE($,#132,#133,#101,.T.);
#158=EDGE_CURVE($,#133,#130,#111,.T.);
#159=EDGE_CURVE($,#127,#126,#112,.T.);
#160=EDGE_CURVE($,#134,#134,#113,.T.);
#161=EDGE_CURVE($,#135,#135,#114,.T.);
#162=EDGE_CURVE($,#136,#136,#115,.T.);
#163=EDGE_CURVE($,#137,#137,#116,.T.);
#164=EDGE_CURVE($,#138,#138,#117,.T.);
#165=EDGE_CURVE($,#139,#139,#118,.T.);
#166=EDGE_CURVE($,#140,#140,#119,.T.);
#167=EDGE_CURVE($,#141,#141,#120,.T.);
#168=EDGE_CURVE($,#142,#142,#121,.T.);
#169=EDGE_CURVE($,#143,#143,#122,.T.);
#170=EDGE_CURVE($,#144,#144,#123,.T.);
#171=EDGE_CURVE($,#145,#145,#124,.T.);
#172=EDGE_CURVE($,#146,#146,#125,.T.);
#173=ORIENTED_EDGE($,*,*,#147,.T.);
#174=ORIENTED_EDGE($,*,*,#148,.F.);
#175=ORIENTED_EDGE($,*,*,#149,.F.);
#176=ORIENTED_EDGE($,*,*,#150,.F.);
#177=ORIENTED_EDGE($,*,*,#151,.F.);
#178=ORIENTED_EDGE($,*,*,#152,.T.);
#179=ORIENTED_EDGE($,*,*,#153,.F.);
#180=ORIENTED_EDGE($,*,*,#148,.T.);
#181=ORIENTED_EDGE($,*,*,#154,.T.);
#182=ORIENTED_EDGE($,*,*,#155,.F.);
#183=ORIENTED_EDGE($,*,*,#149,.T.);
#184=ORIENTED_EDGE($,*,*,#153,.T.);
#185=ORIENTED_EDGE($,*,*,#156,.F.);
#186=ORIENTED_EDGE($,*,*,#150,.T.);
#187=ORIENTED_EDGE($,*,*,#155,.T.);
#188=ORIENTED_EDGE($,*,*,#157,.T.);
#189=ORIENTED_EDGE($,*,*,#158,.F.);
#190=ORIENTED_EDGE($,*,*,#157,.F.);
#191=ORIENTED_EDGE($,*,*,#154,.F.);
#192=ORIENTED_EDGE($,*,*,#152,.F.);
#193=ORIENTED_EDGE($,*,*,#156,.T.);
#194=ORIENTED_EDGE($,*,*,#158,.T.);
#195=ORIENTED_EDGE($,*,*,#151,.T.);
#196=ORIENTED_EDGE($,*,*,#159,.T.);
#197=ORIENTED_EDGE($,*,*,#160,.F.);
#198=ORIENTED_EDGE($,*,*,#161,.F.);
#199=ORIENTED_EDGE($,*,*,#162,.T.);
#200=ORIENTED_EDGE($,*,*,#163,.F.);
#201=ORIENTED_EDGE($,*,*,#161,.T.);
#202=ORIENTED_EDGE($,*,*,#164,.F.);
#203=ORIENTED_EDGE($,*,*,#163,.T.);
#204=ORIENTED_EDGE($,*,*,#165,.F.);
#205=ORIENTED_EDGE($,*,*,#164,.T.);
#206=ORIENTED_EDGE($,*,*,#147,.F.);
#207=ORIENTED_EDGE($,*,*,#159,.F.);
#208=ORIENTED_EDGE($,*,*,#165,.T.);
#209=ORIENTED_EDGE($,*,*,#160,.T.);
#210=ORIENTED_EDGE($,*,*,#166,.F.);
#211=ORIENTED_EDGE($,*,*,#167,.F.);
#212=ORIENTED_EDGE($,*,*,#166,.T.);
#213=ORIENTED_EDGE($,*,*,#168,.F.);
#214=ORIENTED_EDGE($,*,*,#167,.T.);
#215=ORIENTED_EDGE($,*,*,#169,.F.);
#216=ORIENTED_EDGE($,*,*,#168,.T.);
#217=ORIENTED_EDGE($,*,*,#170,.F.);
#218=ORIENTED_EDGE($,*,*,#169,.T.);
#219=ORIENTED_EDGE($,*,*,#171,.F.);
#220=ORIENTED_EDGE($,*,*,#170,.T.);
#221=ORIENTED_EDGE($,*,*,#172,.F.);
#222=ORIENTED_EDGE($,*,*,#171,.T.);
#223=ORIENTED_EDGE($,*,*,#162,.F.);
#224=ORIENTED_EDGE($,*,*,#172,.T.);
#225=PLANE($,#262);
#226=PLANE($,#265);
#227=PLANE($,#268);
#228=PLANE($,#269);
#229=PLANE($,#277);
#230=PLANE($,#284);
#231=PLANE($,#285);
#232=PLANE($,#295);
#233=STYLED_ITEM($,(#494),#239);
#234=STYLED_ITEM($,(#494),#240);
#235=STYLED_ITEM($,(#494),#241);
#236=STYLED_ITEM($,(#494),#242);
#237=STYLED_ITEM($,(#494),#243);
#238=STYLED_ITEM($,(#493),#260);
#239=ADVANCED_FACE($,(#44),#225,.F.);
#240=ADVANCED_FACE($,(#45),#226,.T.);
#241=ADVANCED_FACE($,(#46),#38,.T.);
#242=ADVANCED_FACE($,(#47),#227,.T.);
#243=ADVANCED_FACE($,(#48),#228,.T.);
#244=ADVANCED_FACE($,(#49,#20),#34,.F.);
#245=ADVANCED_FACE($,(#50,#21),#16,.F.);
#246=ADVANCED_FACE($,(#51,#22),#229,.T.);
#247=ADVANCED_FACE($,(#52,#23),#35,.F.);
#248=ADVANCED_FACE($,(#53,#24),#17,.F.);
#249=ADVANCED_FACE($,(#54,#25),#39,.F.);
#250=ADVANCED_FACE($,(#55),#230,.T.);
#251=ADVANCED_FACE($,(#56),#231,.T.);
#252=ADVANCED_FACE($,(#57,#26),#36,.T.);
#253=ADVANCED_FACE($,(#58,#27),#40,.T.);
#254=ADVANCED_FACE($,(#59,#28),#18,.T.);
#255=ADVANCED_FACE($,(#60,#29),#37,.T.);
#256=ADVANCED_FACE($,(#30,#31),#232,.T.);
#257=ADVANCED_FACE($,(#61,#32),#19,.F.);
#258=ADVANCED_FACE($,(#62,#33),#41,.F.);
#259=CLOSED_SHELL($,(#239,#240,#241,#242,#243,#244,#245,#246,#247,#248,
#249,#250,#251,#252,#253,#254,#255,#256,#257,#258));
#260=MANIFOLD_SOLID_BREP('Volumenk\X\F6rper1',#259);
#261=AXIS2_PLACEMENT_3D('placement',#390,#302,#303);
#262=AXIS2_PLACEMENT_3D($,#391,#304,#305);
#263=AXIS2_PLACEMENT_3D($,#394,#306,#307);
#264=AXIS2_PLACEMENT_3D($,#398,#309,#310);
#265=AXIS2_PLACEMENT_3D($,#400,#312,#313);
#266=AXIS2_PLACEMENT_3D($,#409,#316,#317);
#267=AXIS2_PLACEMENT_3D($,#411,#318,#319);
#268=AXIS2_PLACEMENT_3D($,#413,#321,#322);
#269=AXIS2_PLACEMENT_3D($,#420,#324,#325);
#270=AXIS2_PLACEMENT_3D($,#421,#326,#327);
#271=AXIS2_PLACEMENT_3D($,#422,#328,#329);
#272=AXIS2_PLACEMENT_3D($,#423,#330,#331);
#273=AXIS2_PLACEMENT_3D($,#425,#332,#333);
#274=AXIS2_PLACEMENT_3D($,#426,#334,#335);
#275=AXIS2_PLACEMENT_3D($,#428,#336,#337);
#276=AXIS2_PLACEMENT_3D($,#430,#338,#339);
#277=AXIS2_PLACEMENT_3D($,#431,#340,#341);
#278=AXIS2_PLACEMENT_3D($,#433,#342,#343);
#279=AXIS2_PLACEMENT_3D($,#434,#344,#345);
#280=AXIS2_PLACEMENT_3D($,#436,#346,#347);
#281=AXIS2_PLACEMENT_3D($,#437,#348,#349);
#282=AXIS2_PLACEMENT_3D($,#439,#350,#351);
#283=AXIS2_PLACEMENT_3D($,#440,#352,#353);
#284=AXIS2_PLACEMENT_3D($,#441,#354,#355);
#285=AXIS2_PLACEMENT_3D($,#442,#356,#357);
#286=AXIS2_PLACEMENT_3D($,#444,#358,#359);
#287=AXIS2_PLACEMENT_3D($,#445,#360,#361);
#288=AXIS2_PLACEMENT_3D($,#447,#362,#363);
#289=AXIS2_PLACEMENT_3D($,#448,#364,#365);
#290=AXIS2_PLACEMENT_3D($,#450,#366,#367);
#291=AXIS2_PLACEMENT_3D($,#451,#368,#369);
#292=AXIS2_PLACEMENT_3D($,#453,#370,#371);
#293=AXIS2_PLACEMENT_3D($,#454,#372,#373);
#294=AXIS2_PLACEMENT_3D($,#456,#374,#375);
#295=AXIS2_PLACEMENT_3D($,#457,#376,#377);
#296=AXIS2_PLACEMENT_3D($,#459,#378,#379);
#297=AXIS2_PLACEMENT_3D($,#460,#380,#381);
#298=AXIS2_PLACEMENT_3D($,#462,#382,#383);
#299=AXIS2_PLACEMENT_3D($,#463,#384,#385);
#300=AXIS2_PLACEMENT_3D('placement',#464,#386,#387);
#301=AXIS2_PLACEMENT_3D($,#465,#388,#389);
#302=DIRECTION('axis',(0.,0.,1.));
#303=DIRECTION('refdir',(1.,0.,0.));
#304=DIRECTION('center_axis',(1.,0.,0.));
#305=DIRECTION('ref_axis',(0.,0.,-1.));
#306=DIRECTION('center_axis',(-1.,0.,0.));
#307=DIRECTION('ref_axis',(0.,-1.,1.22464679914735E-016));
#308=DIRECTION($,(0.,-1.,1.20692294137241E-016));
#309=DIRECTION('center_axis',(1.,0.,0.));
#310=DIRECTION('ref_axis',(0.,0.986013297183269,-0.166666666666667));
#311=DIRECTION($,(0.,1.,-1.20692294137241E-016));
#312=DIRECTION('center_axis',(0.,1.20692294137241E-016,1.));
#313=DIRECTION('ref_axis',(1.,0.,0.));
#314=DIRECTION($,(0.,1.,-1.20692294137241E-016));
#315=DIRECTION($,(1.,0.,0.));
#316=DIRECTION('center_axis',(1.,0.,0.));
#317=DIRECTION('ref_axis',(0.,0.986013297183269,-0.166666666666667));
#318=DIRECTION('center_axis',(-1.,0.,0.));
#319=DIRECTION('ref_axis',(0.,0.986013297183269,-0.166666666666667));
#320=DIRECTION($,(1.,0.,0.));
#321=DIRECTION('center_axis',(0.,-1.20692294137241E-016,-1.));
#322=DIRECTION('ref_axis',(-1.,0.,0.));
#323=DIRECTION($,(0.,-1.,1.20692294137241E-016));
#324=DIRECTION('center_axis',(1.,0.,0.));
#325=DIRECTION('ref_axis',(0.,0.,-1.));
#326=DIRECTION('center_axis',(-1.,0.,0.));
#327=DIRECTION('ref_axis',(0.,0.,1.));
#328=DIRECTION('center_axis',(-1.,0.,0.));
#329=DIRECTION('ref_axis',(0.,-1.22464679914735E-016,-1.));
#330=DIRECTION('center_axis',(-1.,0.,0.));
#331=DIRECTION('ref_axis',(0.,-1.,1.22464679914735E-016));
#332=DIRECTION('center_axis',(-1.,0.,0.));
#333=DIRECTION('ref_axis',(0.,-1.,1.22464679914735E-016));
#334=DIRECTION('center_axis',(1.,0.,0.));
#335=DIRECTION('ref_axis',(0.,-1.,1.22464679914735E-016));
#336=DIRECTION('center_axis',(-1.,0.,0.));
#337=DIRECTION('ref_axis',(0.,-1.,1.22464679914735E-016));
#338=DIRECTION('center_axis',(-1.,0.,0.));
#339=DIRECTION('ref_axis',(0.,-1.,1.22464679914735E-016));
#340=DIRECTION('center_axis',(1.,0.,0.));
#341=DIRECTION('ref_axis',(0.,0.,1.));
#342=DIRECTION('center_axis',(-1.,0.,0.));
#343=DIRECTION('ref_axis',(0.,-1.,1.22464679914735E-016));
#344=DIRECTION('center_axis',(-1.,0.,0.));
#345=DIRECTION('ref_axis',(0.,-1.22464679914735E-016,-1.));
#346=DIRECTION('center_axis',(-1.,0.,0.));
#347=DIRECTION('ref_axis',(0.,-1.,1.22464679914735E-016));
#348=DIRECTION('center_axis',(-1.,0.,0.));
#349=DIRECTION('ref_axis',(0.,-1.,1.22464679914735E-016));
#350=DIRECTION('center_axis',(-1.,0.,0.));
#351=DIRECTION('ref_axis',(0.,-1.,1.22464679914735E-016));
#352=DIRECTION('center_axis',(-1.,0.,0.));
#353=DIRECTION('ref_axis',(0.,-1.,1.22464679914735E-016));
#354=DIRECTION('center_axis',(-1.,0.,0.));
#355=DIRECTION('ref_axis',(0.,-1.77635683940025E-016,-1.));
#356=DIRECTION('center_axis',(1.,0.,0.));
#357=DIRECTION('ref_axis',(0.,1.77635683940025E-016,1.));
#358=DIRECTION('center_axis',(-1.,0.,0.));
#359=DIRECTION('ref_axis',(0.,-1.,1.22464679914735E-016));
#360=DIRECTION('center_axis',(-1.,0.,0.));
#361=DIRECTION('ref_axis',(0.,-1.22464679914735E-016,-1.));
#362=DIRECTION('center_axis',(-1.,0.,0.));
#363=DIRECTION('ref_axis',(0.,-1.,1.22464679914735E-016));
#364=DIRECTION('center_axis',(-1.,0.,0.));
#365=DIRECTION('ref_axis',(0.,-1.,1.22464679914735E-016));
#366=DIRECTION('center_axis',(-1.,0.,0.));
#367=DIRECTION('ref_axis',(0.,-1.,1.22464679914735E-016));
#368=DIRECTION('center_axis',(-1.,0.,0.));
#369=DIRECTION('ref_axis',(0.,-1.,1.22464679914735E-016));
#370=DIRECTION('center_axis',(-1.,0.,0.));
#371=DIRECTION('ref_axis',(0.,-1.,1.22464679914735E-016));
#372=DIRECTION('center_axis',(-1.,0.,0.));
#373=DIRECTION('ref_axis',(0.,-1.22464679914735E-016,-1.));
#374=DIRECTION('center_axis',(-1.,0.,0.));
#375=DIRECTION('ref_axis',(0.,-1.,1.22464679914735E-016));
#376=DIRECTION('center_axis',(-1.,0.,0.));
#377=DIRECTION('ref_axis',(0.,0.,-1.));
#378=DIRECTION('center_axis',(-1.,0.,0.));
#379=DIRECTION('ref_axis',(0.,-1.,1.22464679914735E-016));
#380=DIRECTION('center_axis',(-1.,0.,0.));
#381=DIRECTION('ref_axis',(0.,-1.,1.22464679914735E-016));
#382=DIRECTION('center_axis',(-1.,0.,0.));
#383=DIRECTION('ref_axis',(0.,-1.,1.22464679914735E-016));
#384=DIRECTION('center_axis',(-1.,0.,0.));
#385=DIRECTION('ref_axis',(0.,-1.,1.22464679914735E-016));
#386=DIRECTION('axis',(0.,0.,1.));
#387=DIRECTION('refdir',(1.,0.,0.));
#388=DIRECTION($,(0.,0.,1.));
#389=DIRECTION($,(1.,0.,0.));
#390=CARTESIAN_POINT('',(0.,0.,0.));
#391=CARTESIAN_POINT('Origin',(35.,-9.26096397214471,8.08624047199497E-016));
#392=CARTESIAN_POINT('',(35.,-27.1758544662762,-1.14583333333333));
#393=CARTESIAN_POINT('',(35.,-27.1758544662762,1.14583333333334));
#394=CARTESIAN_POINT('Origin',(35.,0.,0.));
#395=CARTESIAN_POINT('',(35.,-6.77884141813498,1.14583333333333));
#396=CARTESIAN_POINT($,(35.,-6.77884141813498,1.14583333333333));
#397=CARTESIAN_POINT('',(35.,-6.77884141813498,-1.14583333333333));
#398=CARTESIAN_POINT('Origin',(35.,0.,0.));
#399=CARTESIAN_POINT($,(35.,-27.4761181023125,-1.14583333333333));
#400=CARTESIAN_POINT('Origin',(35.,-27.4761181023125,1.14583333333334));
#401=CARTESIAN_POINT('',(35.2,-27.1609442154207,1.14583333333334));
#402=CARTESIAN_POINT('Ctrl Pts',(35.2,-27.1609442154207,1.14583333333334));
#403=CARTESIAN_POINT('Ctrl Pts',(35.1317123631593,-27.1711828826799,1.14583333333334));
#404=CARTESIAN_POINT('Ctrl Pts',(35.0636263965,-27.1758544662762,1.14583333333334));
#405=CARTESIAN_POINT('Ctrl Pts',(35.,-27.1758544662762,1.14583333333334));
#406=CARTESIAN_POINT('',(35.2,-6.77884141813498,1.14583333333333));
#407=CARTESIAN_POINT($,(35.2,-6.77884141813498,1.14583333333333));
#408=CARTESIAN_POINT($,(35.,-6.77884141813498,1.14583333333333));
#409=CARTESIAN_POINT('Origin',(35.,0.,0.));
#410=CARTESIAN_POINT('',(35.2,-6.77884141813498,-1.14583333333333));
#411=CARTESIAN_POINT('Origin',(35.2,0.,0.));
#412=CARTESIAN_POINT($,(35.,-6.77884141813498,-1.14583333333333));
#413=CARTESIAN_POINT('Origin',(35.,-6.77884141813498,-1.14583333333333));
#414=CARTESIAN_POINT('',(35.2,-27.1609442154207,-1.14583333333333));
#415=CARTESIAN_POINT('Ctrl Pts',(35.,-27.1758544662762,-1.14583333333333));
#416=CARTESIAN_POINT('Ctrl Pts',(35.0636263965,-27.1758544662762,-1.14583333333333));
#417=CARTESIAN_POINT('Ctrl Pts',(35.1317123631593,-27.1711828826799,-1.14583333333333));
#418=CARTESIAN_POINT('Ctrl Pts',(35.2,-27.1609442154207,-1.14583333333333));
#419=CARTESIAN_POINT($,(35.2,-27.4761181023125,-1.14583333333333));
#420=CARTESIAN_POINT('Origin',(35.2,-9.26096397214471,8.05590799385177E-016));
#421=CARTESIAN_POINT('Origin',(35.2,0.,0.));
#422=CARTESIAN_POINT('Origin',(35.,0.,0.));
#423=CARTESIAN_POINT('Origin',(35.,0.,0.));
#424=CARTESIAN_POINT('',(36.35,-25.85,3.16571197579591E-015));
#425=CARTESIAN_POINT('Origin',(36.35,0.,0.));
#426=CARTESIAN_POINT('Origin',(1.3,0.,0.));
#427=CARTESIAN_POINT('',(1.5,-27.9,3.41676456962112E-015));
#428=CARTESIAN_POINT('Origin',(1.5,0.,0.));
#429=CARTESIAN_POINT('',(1.1,-27.5,3.36777869765522E-015));
#430=CARTESIAN_POINT('Origin',(1.1,0.,0.));
#431=CARTESIAN_POINT('Origin',(1.5,-28.5,3.49024337756996E-015));
#432=CARTESIAN_POINT('',(1.5,-29.1,3.5637221855188E-015));
#433=CARTESIAN_POINT('Origin',(1.5,0.,0.));
#434=CARTESIAN_POINT('Origin',(3.5,0.,0.));
#435=CARTESIAN_POINT('',(4.78557521937308,-30.632088886238,3.75134896057285E-015));
#436=CARTESIAN_POINT('Origin',(4.78557521937308,0.,0.));
#437=CARTESIAN_POINT('Origin',(6.83067734951145,0.,0.));
#438=CARTESIAN_POINT('',(8.87577947964982,-27.2,3.3310392936808E-015));
#439=CARTESIAN_POINT('Origin',(8.87577947964982,0.,0.));
#440=CARTESIAN_POINT('Origin',(21.9378897398249,0.,0.));
#441=CARTESIAN_POINT('Origin',(36.35,-12.925,1.58285598789795E-015));
#442=CARTESIAN_POINT('Origin',(38.,-12.925,1.58285598789795E-015));
#443=CARTESIAN_POINT('',(38.,-25.85,3.16571197579591E-015));
#444=CARTESIAN_POINT('Origin',(38.,0.,0.));
#445=CARTESIAN_POINT('Origin',(35.,0.,0.));
#446=CARTESIAN_POINT('',(35.,-28.85,3.53310601554011E-015));
#447=CARTESIAN_POINT('Origin',(35.,0.,0.));
#448=CARTESIAN_POINT('Origin',(22.12148589608,0.,0.));
#449=CARTESIAN_POINT('',(9.24297179216,-28.85,3.53310601554011E-015));
#450=CARTESIAN_POINT('Origin',(9.24297179216,0.,0.));
#451=CARTESIAN_POINT('Origin',(7.49636421303144,0.,0.));
#452=CARTESIAN_POINT('',(5.74975663390289,-31.7811555509164,3.89206904186339E-015));
#453=CARTESIAN_POINT('Origin',(5.74975663390289,0.,0.));
#454=CARTESIAN_POINT('Origin',(3.5,0.,0.));
#455=CARTESIAN_POINT('',(0.,-29.1,3.5637221855188E-015));
#456=CARTESIAN_POINT('Origin',(0.,0.,0.));
#457=CARTESIAN_POINT('Origin',(0.,-28.5,3.49024337756996E-015));
#458=CARTESIAN_POINT('',(0.,-27.9,3.41676456962112E-015));
#459=CARTESIAN_POINT('Origin',(0.,0.,0.));
#460=CARTESIAN_POINT('Origin',(0.2,0.,0.));
#461=CARTESIAN_POINT('',(0.4,-27.5,3.36777869765522E-015));
#462=CARTESIAN_POINT('Origin',(0.4,0.,0.));
#463=CARTESIAN_POINT('Origin',(0.75,0.,0.));
#464=CARTESIAN_POINT('',(0.,0.,0.));
#465=CARTESIAN_POINT($,(0.,0.,0.));
#466=UNCERTAINTY_MEASURE_WITH_UNIT(LENGTH_MEASURE(0.01),#470,
'DISTANCE_ACCURACY_VALUE',
'Maximum model space distance between geometric entities at asserted c
onnectivities');
#467=UNCERTAINTY_MEASURE_WITH_UNIT(LENGTH_MEASURE(0.01),#470,
'DISTANCE_ACCURACY_VALUE',
'Maximum model space distance between geometric entities at asserted c
onnectivities');
#468=(
GEOMETRIC_REPRESENTATION_CONTEXT(3)
GLOBAL_UNCERTAINTY_ASSIGNED_CONTEXT((#466))
GLOBAL_UNIT_ASSIGNED_CONTEXT((#470,#473,#471))
REPRESENTATION_CONTEXT('','3D')
);
#469=(
GEOMETRIC_REPRESENTATION_CONTEXT(3)
GLOBAL_UNCERTAINTY_ASSIGNED_CONTEXT((#467))
GLOBAL_UNIT_ASSIGNED_CONTEXT((#470,#473,#471))
REPRESENTATION_CONTEXT('','3D')
);
#470=(
LENGTH_UNIT()
NAMED_UNIT(*)
SI_UNIT(.MILLI.,.METRE.)
);
#471=(
NAMED_UNIT(*)
SI_UNIT($,.STERADIAN.)
SOLID_ANGLE_UNIT()
);
#472=DIMENSIONAL_EXPONENTS(0.,0.,0.,0.,0.,0.,0.);
#473=(
CONVERSION_BASED_UNIT('degree',#475)
NAMED_UNIT(#472)
PLANE_ANGLE_UNIT()
);
#474=(
NAMED_UNIT(*)
PLANE_ANGLE_UNIT()
SI_UNIT($,.RADIAN.)
);
#475=PLANE_ANGLE_MEASURE_WITH_UNIT(PLANE_ANGLE_MEASURE(0.01745329252),#474);
#476=SHAPE_DEFINITION_REPRESENTATION(#478,#481);
#477=SHAPE_DEFINITION_REPRESENTATION(#479,#482);
#478=PRODUCT_DEFINITION_SHAPE('',$,#484);
#479=PRODUCT_DEFINITION_SHAPE('',$,#485);
#480=PRODUCT_DEFINITION_SHAPE($,$,#13);
#481=SHAPE_REPRESENTATION('',(#261),#468);
#482=SHAPE_REPRESENTATION('',(#300,#301),#469);
#483=PRODUCT_DEFINITION_CONTEXT('3D Mechanical Parts',#489,'design');
#484=PRODUCT_DEFINITION('102251','102251',#486,#483);
#485=PRODUCT_DEFINITION('34468','34468',#487,#483);
#486=PRODUCT_DEFINITION_FORMATION('',$,#491);
#487=PRODUCT_DEFINITION_FORMATION('',$,#492);
#488=APPLICATION_PROTOCOL_DEFINITION('international standard',
'automotive_design',2009,#489);
#489=APPLICATION_CONTEXT(
'Core Data for Automotive Mechanical Design Process');
#490=PRODUCT_CONTEXT('3D Mechanical Parts',#489,'mechanical');
#491=PRODUCT('102251','102251',$,(#490));
#492=PRODUCT('34468','34468',$,(#490));
#493=PRESENTATION_STYLE_ASSIGNMENT((#495));
#494=PRESENTATION_STYLE_ASSIGNMENT((#496));
#495=SURFACE_STYLE_USAGE(.BOTH.,#497);
#496=SURFACE_STYLE_USAGE(.BOTH.,#498);
#497=SURFACE_SIDE_STYLE($,(#499));
#498=SURFACE_SIDE_STYLE($,(#500));
#499=SURFACE_STYLE_FILL_AREA(#501);
#500=SURFACE_STYLE_FILL_AREA(#502);
#501=FILL_AREA_STYLE($,(#503));
#502=FILL_AREA_STYLE($,(#504));
#503=FILL_AREA_STYLE_COLOUR($,#505);
#504=FILL_AREA_STYLE_COLOUR($,#506);
#505=COLOUR_RGB('',1.,1.,1.);
#506=COLOUR_RGB('',0.,0.,1.);
ENDSEC;
END-ISO-10303-21;
