ISO-10303-21;
HEADER;
/****************************************************************
 * Generated by software with PDE/Lib inside                    *
 * PDElib Version v51a, created Thu 12/14/2006                  *
 * International Technegroup Inc. (www.iti-oh.com)              *
 ****************************************************************/
FILE_DESCRIPTION((''),'2;1');
FILE_NAME('T:\\Arbeitspl\S\dtze\\Aushilfe\\KPeters\\3D\\Steps 08_10\\13200\\13200032X.stp','2010-08-09T14:04:21',('thilbrands'),(''),'Autodesk Inventor 2008','Autodesk Inventor 2008','');
FILE_SCHEMA(('AUTOMOTIVE_DESIGN { 1 0 10303 214 1 1 1 1 }'));
ENDSEC;
DATA;
#5=APPLICATION_CONTEXT('automotive design');
#6=APPLICATION_PROTOCOL_DEFINITION('International Standard','automotive_design',2001,#5);
#7=PRODUCT_CONTEXT('',#5,'mechanical');
#8=PRODUCT('132000101','132000101',$,(#7));
#9=PRODUCT_RELATED_PRODUCT_CATEGORY('part',$,(#8));
#10=PRODUCT_DEFINITION_FORMATION('',$,#8);
#11=PRODUCT_DEFINITION_CONTEXT('part definition',#5,'design');
#12=PRODUCT_DEFINITION('',$,#10,#11);
#18=(NAMED_UNIT(*)PLANE_ANGLE_UNIT()SI_UNIT($,.RADIAN.));
#19=DIMENSIONAL_EXPONENTS(0.0,0.0,0.0,0.0,0.0,0.0,0.0);
#20=PLANE_ANGLE_MEASURE_WITH_UNIT(PLANE_ANGLE_MEASURE(0.017453292500000),#18);
#24=(CONVERSION_BASED_UNIT('DEGREE',#20)NAMED_UNIT(#19)PLANE_ANGLE_UNIT());
#28=(NAMED_UNIT(*)SI_UNIT($,.STERADIAN.)SOLID_ANGLE_UNIT());
#32=(LENGTH_UNIT()NAMED_UNIT(*)SI_UNIT(.MILLI.,.METRE.));
#34=UNCERTAINTY_MEASURE_WITH_UNIT(LENGTH_MEASURE(0.010000000000000),#32,'DISTANCE_ACCURACY_VALUE','');
#36=(GEOMETRIC_REPRESENTATION_CONTEXT(3)GLOBAL_UNCERTAINTY_ASSIGNED_CONTEXT((#34))GLOBAL_UNIT_ASSIGNED_CONTEXT((#24,#28,#32))REPRESENTATION_CONTEXT('None','None'));
#37=AXIS2_PLACEMENT_3D('',#38,#39,#40);
#38=CARTESIAN_POINT('',(0.0,0.0,0.0));
#39=DIRECTION('',(0.0,0.0,1.0));
#40=DIRECTION('',(1.0,0.0,0.0));
#41=SHAPE_REPRESENTATION('',(#37,#388,#668),#36);
#42=PRODUCT_DEFINITION_SHAPE('','',#12);
#43=SHAPE_DEFINITION_REPRESENTATION(#42,#41);
#44=APPLICATION_CONTEXT('automotive design');
#45=APPLICATION_PROTOCOL_DEFINITION('International Standard','automotive_design',2001,#44);
#46=PRODUCT_CONTEXT('',#44,'mechanical');
#47=PRODUCT('ENG-007296-DN32','ENG-007296-DN32',$,(#46));
#48=PRODUCT_RELATED_PRODUCT_CATEGORY('part',$,(#47));
#49=PRODUCT_DEFINITION_FORMATION('',$,#47);
#50=PRODUCT_DEFINITION_CONTEXT('part definition',#44,'design');
#51=PRODUCT_DEFINITION('',$,#49,#50);
#57=(NAMED_UNIT(*)PLANE_ANGLE_UNIT()SI_UNIT($,.RADIAN.));
#58=DIMENSIONAL_EXPONENTS(0.0,0.0,0.0,0.0,0.0,0.0,0.0);
#59=PLANE_ANGLE_MEASURE_WITH_UNIT(PLANE_ANGLE_MEASURE(0.017453292500000),#57);
#63=(CONVERSION_BASED_UNIT('DEGREE',#59)NAMED_UNIT(#58)PLANE_ANGLE_UNIT());
#67=(NAMED_UNIT(*)SI_UNIT($,.STERADIAN.)SOLID_ANGLE_UNIT());
#71=(LENGTH_UNIT()NAMED_UNIT(*)SI_UNIT(.MILLI.,.METRE.));
#73=UNCERTAINTY_MEASURE_WITH_UNIT(LENGTH_MEASURE(0.010000000000000),#71,'DISTANCE_ACCURACY_VALUE','');
#75=(GEOMETRIC_REPRESENTATION_CONTEXT(3)GLOBAL_UNCERTAINTY_ASSIGNED_CONTEXT((#73))GLOBAL_UNIT_ASSIGNED_CONTEXT((#63,#67,#71))REPRESENTATION_CONTEXT('None','None'));
#76=AXIS2_PLACEMENT_3D('',#77,#78,#79);
#77=CARTESIAN_POINT('',(0.0,0.0,0.0));
#78=DIRECTION('',(0.0,0.0,1.0));
#79=DIRECTION('',(1.0,0.0,0.0));
#80=SHAPE_REPRESENTATION('',(#76),#75);
#81=PRODUCT_DEFINITION_SHAPE('','',#51);
#82=SHAPE_DEFINITION_REPRESENTATION(#81,#80);
#88=(NAMED_UNIT(*)PLANE_ANGLE_UNIT()SI_UNIT($,.RADIAN.));
#89=DIMENSIONAL_EXPONENTS(0.0,0.0,0.0,0.0,0.0,0.0,0.0);
#90=PLANE_ANGLE_MEASURE_WITH_UNIT(PLANE_ANGLE_MEASURE(0.017453292500000),#88);
#94=(CONVERSION_BASED_UNIT('DEGREE',#90)NAMED_UNIT(#89)PLANE_ANGLE_UNIT());
#98=(NAMED_UNIT(*)SI_UNIT($,.STERADIAN.)SOLID_ANGLE_UNIT());
#102=(LENGTH_UNIT()NAMED_UNIT(*)SI_UNIT(.MILLI.,.METRE.));
#104=UNCERTAINTY_MEASURE_WITH_UNIT(LENGTH_MEASURE(0.000001000000000),#102,'DISTANCE_ACCURACY_VALUE','');
#106=(GEOMETRIC_REPRESENTATION_CONTEXT(3)GLOBAL_UNCERTAINTY_ASSIGNED_CONTEXT((#104))GLOBAL_UNIT_ASSIGNED_CONTEXT((#94,#98,#102))REPRESENTATION_CONTEXT('','3D'));
#107=CARTESIAN_POINT('',(14.599999999999991,-2.265522E-015,18.500000000000000));
#108=CARTESIAN_POINT('',(12.999999999999991,-2.265522E-015,18.500000000000000));
#109=CARTESIAN_POINT('',(12.999999999999989,-2.461459E-015,20.100000000000001));
#110=CARTESIAN_POINT('',(12.999999999999991,-2.657396E-015,21.700000000000003));
#111=CARTESIAN_POINT('',(14.599999999999991,-2.657396E-015,21.700000000000003));
#112=CARTESIAN_POINT('',(14.599999999999991,-18.500000000000000,18.499999999999993));
#113=CARTESIAN_POINT('',(12.999999999999989,-18.500000000000000,18.499999999999993));
#114=CARTESIAN_POINT('',(12.999999999999989,-20.100000000000001,20.099999999999994));
#115=CARTESIAN_POINT('',(12.999999999999989,-21.700000000000003,21.699999999999996));
#116=CARTESIAN_POINT('',(14.599999999999991,-21.700000000000003,21.699999999999996));
#117=CARTESIAN_POINT('',(14.599999999999991,-18.500000000000000,-2.265522E-015));
#118=CARTESIAN_POINT('',(12.999999999999991,-18.500000000000000,-2.265522E-015));
#119=CARTESIAN_POINT('',(12.999999999999989,-20.100000000000001,-2.461459E-015));
#120=CARTESIAN_POINT('',(12.999999999999991,-21.700000000000003,-2.657396E-015));
#121=CARTESIAN_POINT('',(14.599999999999991,-21.700000000000003,-2.657396E-015));
#122=CARTESIAN_POINT('',(14.599999999999991,-18.499999999999993,-18.500000000000000));
#123=CARTESIAN_POINT('',(12.999999999999989,-18.499999999999993,-18.500000000000000));
#124=CARTESIAN_POINT('',(12.999999999999989,-20.099999999999994,-20.100000000000001));
#125=CARTESIAN_POINT('',(12.999999999999989,-21.699999999999996,-21.700000000000003));
#126=CARTESIAN_POINT('',(14.599999999999991,-21.699999999999996,-21.700000000000003));
#127=CARTESIAN_POINT('',(14.599999999999991,2.265522E-015,-18.500000000000000));
#128=CARTESIAN_POINT('',(12.999999999999991,2.265522E-015,-18.500000000000000));
#129=CARTESIAN_POINT('',(12.999999999999989,2.461459E-015,-20.100000000000001));
#130=CARTESIAN_POINT('',(12.999999999999991,2.657396E-015,-21.700000000000003));
#131=CARTESIAN_POINT('',(14.599999999999991,2.657396E-015,-21.700000000000003));
#132=CARTESIAN_POINT('',(14.599999999999991,18.500000000000000,-18.499999999999993));
#133=CARTESIAN_POINT('',(12.999999999999989,18.500000000000000,-18.499999999999993));
#134=CARTESIAN_POINT('',(12.999999999999989,20.100000000000001,-20.099999999999994));
#135=CARTESIAN_POINT('',(12.999999999999989,21.700000000000003,-21.699999999999996));
#136=CARTESIAN_POINT('',(14.599999999999991,21.700000000000003,-21.699999999999996));
#137=CARTESIAN_POINT('',(14.599999999999991,18.500000000000000,2.265522E-015));
#138=CARTESIAN_POINT('',(12.999999999999991,18.500000000000000,2.265522E-015));
#139=CARTESIAN_POINT('',(12.999999999999989,20.100000000000001,2.461459E-015));
#140=CARTESIAN_POINT('',(12.999999999999991,21.700000000000003,2.657396E-015));
#141=CARTESIAN_POINT('',(14.599999999999991,21.700000000000003,2.657396E-015));
#142=CARTESIAN_POINT('',(14.599999999999991,18.499999999999993,18.500000000000000));
#143=CARTESIAN_POINT('',(12.999999999999989,18.499999999999993,18.500000000000000));
#144=CARTESIAN_POINT('',(12.999999999999989,20.099999999999994,20.100000000000001));
#145=CARTESIAN_POINT('',(12.999999999999989,21.699999999999996,21.700000000000003));
#146=CARTESIAN_POINT('',(14.599999999999991,21.699999999999996,21.700000000000003));
#147=CARTESIAN_POINT('',(14.599999999999991,-2.265522E-015,18.500000000000000));
#148=CARTESIAN_POINT('',(12.999999999999991,-2.265522E-015,18.500000000000000));
#149=CARTESIAN_POINT('',(12.999999999999989,-2.461459E-015,20.100000000000001));
#150=CARTESIAN_POINT('',(12.999999999999991,-2.657396E-015,21.700000000000003));
#151=CARTESIAN_POINT('',(14.599999999999991,-2.657396E-015,21.700000000000003));
#159=(BOUNDED_SURFACE()B_SPLINE_SURFACE(2,2,((#107,#112,#117,#122,#127,#132,#137,#142,#147),(#108,#113,#118,#123,#128,#133,#138,#143,#148),(#109,#114,#119,#124,#129,#134,#139,#144,#149),(#110,#115,#120,#125,#130,#135,#140,#145,#150),(#111,#116,#121,#126,#131,#136,#141,#146,#151)),.UNSPECIFIED.,.F.,.T.,.U.)B_SPLINE_SURFACE_WITH_KNOTS((3,2,3),(3,2,2,2,3),(-3.141592653589793,-1.570796326794897,0.0),(0.0,1.570796326794897,3.141592653589793,4.712388980384690,6.283185307179586),.UNSPECIFIED.)GEOMETRIC_REPRESENTATION_ITEM()RATIONAL_B_SPLINE_SURFACE(((1.0,0.707106781186548,1.0,0.707106781186548,1.0,0.707106781186548,1.0,0.707106781186548,1.0),(0.707106781186549,0.500000000000001,0.707106781186549,0.500000000000001,0.707106781186549,0.500000000000001,0.707106781186549,0.500000000000001,0.707106781186549),(1.0,0.707106781186548,1.0,0.707106781186548,1.0,0.707106781186548,1.0,0.707106781186548,1.0),(0.707106781186549,0.500000000000001,0.707106781186549,0.500000000000001,0.707106781186549,0.500000000000001,0.707106781186549,0.500000000000001,0.707106781186549),(1.0,0.707106781186548,1.0,0.707106781186548,1.0,0.707106781186548,1.0,0.707106781186548,1.0)))REPRESENTATION_ITEM('')SURFACE());
#160=CARTESIAN_POINT('',(12.999999999999991,20.100000000000001,-4.930381E-031));
#161=VERTEX_POINT('',#160);
#162=CARTESIAN_POINT('',(12.999999999999991,0.0,0.0));
#163=DIRECTION('',(1.0,0.0,0.0));
#164=DIRECTION('',(0.0,-1.0,0.0));
#165=AXIS2_PLACEMENT_3D('',#162,#163,#164);
#166=CIRCLE('',#165,20.100000000000001);
#167=EDGE_CURVE('',#161,#161,#166,.T.);
#168=ORIENTED_EDGE('',*,*,#167,.T.);
#169=EDGE_LOOP('',(#168));
#170=FACE_OUTER_BOUND('',#169,.T.);
#171=CARTESIAN_POINT('',(14.599999999999991,18.500000000000000,-4.531044E-015));
#172=VERTEX_POINT('',#171);
#173=CARTESIAN_POINT('',(14.599999999999991,0.0,0.0));
#174=DIRECTION('',(-1.0,0.0,0.0));
#175=DIRECTION('',(0.0,-1.0,0.0));
#176=AXIS2_PLACEMENT_3D('',#173,#174,#175);
#177=CIRCLE('',#176,18.500000000000000);
#178=EDGE_CURVE('',#172,#172,#177,.T.);
#179=ORIENTED_EDGE('',*,*,#178,.T.);
#180=EDGE_LOOP('',(#179));
#181=FACE_BOUND('',#180,.T.);
#182=ADVANCED_FACE('',(#170,#181),#159,.T.);
#183=CARTESIAN_POINT('',(12.999999999999991,19.500000000000007,0.0));
#184=DIRECTION('',(1.0,0.0,0.0));
#185=DIRECTION('',(0.0,0.0,-1.0));
#186=AXIS2_PLACEMENT_3D('',#183,#184,#185);
#187=PLANE('',#186);
#188=CARTESIAN_POINT('',(12.999999999999989,20.500000000000014,0.0));
#189=VERTEX_POINT('',#188);
#190=CARTESIAN_POINT('',(12.999999999999989,0.0,0.0));
#191=DIRECTION('',(1.0,0.0,0.0));
#192=DIRECTION('',(0.0,1.0,0.0));
#193=AXIS2_PLACEMENT_3D('',#190,#191,#192);
#194=CIRCLE('',#193,20.500000000000014);
#195=EDGE_CURVE('',#189,#189,#194,.T.);
#196=ORIENTED_EDGE('',*,*,#195,.T.);
#197=EDGE_LOOP('',(#196));
#198=FACE_OUTER_BOUND('',#197,.T.);
#199=ORIENTED_EDGE('',*,*,#167,.F.);
#200=EDGE_LOOP('',(#199));
#201=FACE_BOUND('',#200,.T.);
#202=ADVANCED_FACE('',(#198,#201),#187,.T.);
#203=CARTESIAN_POINT('',(18.566987298107772,0.0,0.0));
#204=DIRECTION('',(1.0,0.0,0.0));
#205=DIRECTION('',(0.0,1.0,0.0));
#206=AXIS2_PLACEMENT_3D('',#203,#204,#205);
#207=CYLINDRICAL_SURFACE('',#206,18.500000000000000);
#208=CARTESIAN_POINT('',(24.133974596215548,18.500000000000007,0.0));
#209=VERTEX_POINT('',#208);
#210=CARTESIAN_POINT('',(24.133974596215548,0.0,0.0));
#211=DIRECTION('',(1.0,0.0,0.0));
#212=DIRECTION('',(0.0,1.0,0.0));
#213=AXIS2_PLACEMENT_3D('',#210,#211,#212);
#214=CIRCLE('',#213,18.500000000000007);
#215=EDGE_CURVE('',#209,#209,#214,.T.);
#216=ORIENTED_EDGE('',*,*,#215,.F.);
#217=EDGE_LOOP('',(#216));
#218=FACE_OUTER_BOUND('',#217,.T.);
#219=ORIENTED_EDGE('',*,*,#178,.F.);
#220=EDGE_LOOP('',(#219));
#221=FACE_BOUND('',#220,.T.);
#222=ADVANCED_FACE('',(#218,#221),#207,.T.);
#223=CARTESIAN_POINT('',(0.260726317350626,0.0,0.0));
#224=DIRECTION('',(1.0,0.0,0.0));
#225=DIRECTION('',(0.0,1.0,0.0));
#226=AXIS2_PLACEMENT_3D('',#223,#224,#225);
#227=CONICAL_SURFACE('',#226,19.480115444024033,85.000000000000085);
#228=CARTESIAN_POINT('',(0.521452634701254,22.460230888048063,0.0));
#229=VERTEX_POINT('',#228);
#230=CARTESIAN_POINT('',(0.521452634701254,0.0,0.0));
#231=DIRECTION('',(1.0,0.0,0.0));
#232=DIRECTION('',(0.0,1.0,0.0));
#233=AXIS2_PLACEMENT_3D('',#230,#231,#232);
#234=CIRCLE('',#233,22.460230888048063);
#235=EDGE_CURVE('',#229,#229,#234,.T.);
#236=ORIENTED_EDGE('',*,*,#235,.F.);
#237=EDGE_LOOP('',(#236));
#238=FACE_OUTER_BOUND('',#237,.T.);
#239=CARTESIAN_POINT('',(-1.032243E-015,16.500000000000004,0.0));
#240=VERTEX_POINT('',#239);
#241=CARTESIAN_POINT('',(-1.032243E-015,0.0,0.0));
#242=DIRECTION('',(1.0,0.0,0.0));
#243=DIRECTION('',(0.0,1.0,0.0));
#244=AXIS2_PLACEMENT_3D('',#241,#242,#243);
#245=CIRCLE('',#244,16.500000000000004);
#246=EDGE_CURVE('',#240,#240,#245,.T.);
#247=ORIENTED_EDGE('',*,*,#246,.T.);
#248=EDGE_LOOP('',(#247));
#249=FACE_BOUND('',#248,.T.);
#250=ADVANCED_FACE('',(#238,#249),#227,.T.);
#251=CARTESIAN_POINT('',(5.260726317350622,0.0,0.0));
#252=DIRECTION('',(1.0,0.0,0.0));
#253=DIRECTION('',(0.0,1.0,0.0));
#254=AXIS2_PLACEMENT_3D('',#251,#252,#253);
#255=CONICAL_SURFACE('',#254,23.730115444024030,14.999999999999973);
#256=CARTESIAN_POINT('',(9.999999999999991,25.0,0.0));
#257=VERTEX_POINT('',#256);
#258=CARTESIAN_POINT('',(9.999999999999991,0.0,0.0));
#259=DIRECTION('',(1.0,0.0,0.0));
#260=DIRECTION('',(0.0,1.0,0.0));
#261=AXIS2_PLACEMENT_3D('',#258,#259,#260);
#262=CIRCLE('',#261,25.0);
#263=EDGE_CURVE('',#257,#257,#262,.T.);
#264=ORIENTED_EDGE('',*,*,#263,.F.);
#265=EDGE_LOOP('',(#264));
#266=FACE_OUTER_BOUND('',#265,.T.);
#267=ORIENTED_EDGE('',*,*,#235,.T.);
#268=EDGE_LOOP('',(#267));
#269=FACE_BOUND('',#268,.T.);
#270=ADVANCED_FACE('',(#266,#269),#255,.T.);
#271=CARTESIAN_POINT('',(9.999999999999989,22.750000000000007,0.0));
#272=DIRECTION('',(1.0,0.0,0.0));
#273=DIRECTION('',(0.0,0.0,-1.0));
#274=AXIS2_PLACEMENT_3D('',#271,#272,#273);
#275=PLANE('',#274);
#276=ORIENTED_EDGE('',*,*,#263,.T.);
#277=EDGE_LOOP('',(#276));
#278=FACE_OUTER_BOUND('',#277,.T.);
#279=CARTESIAN_POINT('',(9.999999999999986,20.500000000000014,0.0));
#280=VERTEX_POINT('',#279);
#281=CARTESIAN_POINT('',(9.999999999999986,0.0,0.0));
#282=DIRECTION('',(1.0,0.0,0.0));
#283=DIRECTION('',(0.0,1.0,0.0));
#284=AXIS2_PLACEMENT_3D('',#281,#282,#283);
#285=CIRCLE('',#284,20.500000000000014);
#286=EDGE_CURVE('',#280,#280,#285,.T.);
#287=ORIENTED_EDGE('',*,*,#286,.F.);
#288=EDGE_LOOP('',(#287));
#289=FACE_BOUND('',#288,.T.);
#290=ADVANCED_FACE('',(#278,#289),#275,.T.);
#291=CARTESIAN_POINT('',(11.499999999999988,0.0,0.0));
#292=DIRECTION('',(1.0,0.0,0.0));
#293=DIRECTION('',(0.0,1.0,0.0));
#294=AXIS2_PLACEMENT_3D('',#291,#292,#293);
#295=CYLINDRICAL_SURFACE('',#294,20.500000000000014);
#296=ORIENTED_EDGE('',*,*,#195,.F.);
#297=EDGE_LOOP('',(#296));
#298=FACE_OUTER_BOUND('',#297,.T.);
#299=ORIENTED_EDGE('',*,*,#286,.T.);
#300=EDGE_LOOP('',(#299));
#301=FACE_BOUND('',#300,.T.);
#302=ADVANCED_FACE('',(#298,#301),#295,.T.);
#303=CARTESIAN_POINT('',(24.566987298107769,0.0,0.0));
#304=DIRECTION('',(-1.0,0.0,0.0));
#305=DIRECTION('',(0.0,1.0,0.0));
#306=AXIS2_PLACEMENT_3D('',#303,#304,#305);
#307=CONICAL_SURFACE('',#306,17.750000000000004,59.999999999999943);
#308=CARTESIAN_POINT('',(24.999999999999993,17.0,0.0));
#309=VERTEX_POINT('',#308);
#310=CARTESIAN_POINT('',(24.999999999999993,0.0,0.0));
#311=DIRECTION('',(1.0,0.0,0.0));
#312=DIRECTION('',(0.0,1.0,0.0));
#313=AXIS2_PLACEMENT_3D('',#310,#311,#312);
#314=CIRCLE('',#313,17.0);
#315=EDGE_CURVE('',#309,#309,#314,.T.);
#316=ORIENTED_EDGE('',*,*,#315,.F.);
#317=EDGE_LOOP('',(#316));
#318=FACE_OUTER_BOUND('',#317,.T.);
#319=ORIENTED_EDGE('',*,*,#215,.T.);
#320=EDGE_LOOP('',(#319));
#321=FACE_BOUND('',#320,.T.);
#322=ADVANCED_FACE('',(#318,#321),#307,.T.);
#323=CARTESIAN_POINT('',(24.999999999999993,16.500000000000000,0.0));
#324=DIRECTION('',(1.0,0.0,0.0));
#325=DIRECTION('',(0.0,0.0,-1.0));
#326=AXIS2_PLACEMENT_3D('',#323,#324,#325);
#327=PLANE('',#326);
#328=ORIENTED_EDGE('',*,*,#315,.T.);
#329=EDGE_LOOP('',(#328));
#330=FACE_OUTER_BOUND('',#329,.T.);
#331=CARTESIAN_POINT('',(24.999999999999993,15.999999999999996,0.0));
#332=VERTEX_POINT('',#331);
#333=CARTESIAN_POINT('',(24.999999999999993,0.0,0.0));
#334=DIRECTION('',(1.0,0.0,0.0));
#335=DIRECTION('',(0.0,1.0,0.0));
#336=AXIS2_PLACEMENT_3D('',#333,#334,#335);
#337=CIRCLE('',#336,15.999999999999996);
#338=EDGE_CURVE('',#332,#332,#337,.T.);
#339=ORIENTED_EDGE('',*,*,#338,.F.);
#340=EDGE_LOOP('',(#339));
#341=FACE_BOUND('',#340,.T.);
#342=ADVANCED_FACE('',(#330,#341),#327,.T.);
#343=CARTESIAN_POINT('',(12.499999999999996,0.0,0.0));
#344=DIRECTION('',(1.0,0.0,0.0));
#345=DIRECTION('',(0.0,1.0,0.0));
#346=AXIS2_PLACEMENT_3D('',#343,#344,#345);
#347=CYLINDRICAL_SURFACE('',#346,16.0);
#348=CARTESIAN_POINT('',(0.0,16.000000000000007,0.0));
#349=VERTEX_POINT('',#348);
#350=CARTESIAN_POINT('',(0.0,0.0,0.0));
#351=DIRECTION('',(1.0,0.0,0.0));
#352=DIRECTION('',(0.0,1.0,0.0));
#353=AXIS2_PLACEMENT_3D('',#350,#351,#352);
#354=CIRCLE('',#353,16.000000000000007);
#355=EDGE_CURVE('',#349,#349,#354,.T.);
#356=ORIENTED_EDGE('',*,*,#355,.F.);
#357=EDGE_LOOP('',(#356));
#358=FACE_OUTER_BOUND('',#357,.T.);
#359=ORIENTED_EDGE('',*,*,#338,.T.);
#360=EDGE_LOOP('',(#359));
#361=FACE_BOUND('',#360,.T.);
#362=ADVANCED_FACE('',(#358,#361),#347,.F.);
#363=CARTESIAN_POINT('',(-5.161215E-016,16.250000000000004,0.0));
#364=DIRECTION('',(-1.0,0.0,0.0));
#365=DIRECTION('',(0.0,0.0,1.0));
#366=AXIS2_PLACEMENT_3D('',#363,#364,#365);
#367=PLANE('',#366);
#368=ORIENTED_EDGE('',*,*,#246,.F.);
#369=EDGE_LOOP('',(#368));
#370=FACE_OUTER_BOUND('',#369,.T.);
#371=ORIENTED_EDGE('',*,*,#355,.T.);
#372=EDGE_LOOP('',(#371));
#373=FACE_BOUND('',#372,.T.);
#374=ADVANCED_FACE('',(#370,#373),#367,.T.);
#375=CLOSED_SHELL('',(#182,#202,#222,#250,#270,#290,#302,#322,#342,#362,#374));
#376=MANIFOLD_SOLID_BREP('',#375);
#377=COLOUR_RGB('Metall - Stahl',0.639216005802155,0.639216005802155,0.686275005340576);
#378=FILL_AREA_STYLE_COLOUR('Metall - Stahl',#377);
#379=FILL_AREA_STYLE('Metall - Stahl',(#378));
#380=SURFACE_STYLE_FILL_AREA(#379);
#381=SURFACE_SIDE_STYLE('Metall - Stahl',(#380));
#382=SURFACE_STYLE_USAGE(.BOTH.,#381);
#383=PRESENTATION_STYLE_ASSIGNMENT((#382));
#384=STYLED_ITEM('',(#383),#376);
#385=MECHANICAL_DESIGN_GEOMETRIC_PRESENTATION_REPRESENTATION('',(#384,#665),#36);
#386=ADVANCED_BREP_SHAPE_REPRESENTATION('ABSR',(#376),#75);
#387=SHAPE_REPRESENTATION_RELATIONSHIP('SRR','None',#386,#80);
#388=AXIS2_PLACEMENT_3D('',#389,#390,#391);
#389=CARTESIAN_POINT('',(0.0,0.0,0.0));
#390=DIRECTION('',(0.0,0.0,1.0));
#391=DIRECTION('',(1.0,0.0,0.0));
#392=NEXT_ASSEMBLY_USAGE_OCCURRENCE('ENG-007296-DN32:1','ENG-007296-DN32:1','ENG-007296-DN32:1',#12,#51,'ENG-007296-DN32:1');
#393=PRODUCT_DEFINITION_SHAPE('ENG-007296-DN32:1','ENG-007296-DN32:1',#392);
#394=ITEM_DEFINED_TRANSFORMATION('ENG-007296-DN32:1','ENG-007296-DN32:1',#76,#388);
#398=(REPRESENTATION_RELATIONSHIP('ENG-007296-DN32:1','ENG-007296-DN32:1',#80,#41)REPRESENTATION_RELATIONSHIP_WITH_TRANSFORMATION(#394)SHAPE_REPRESENTATION_RELATIONSHIP());
#399=CONTEXT_DEPENDENT_SHAPE_REPRESENTATION(#398,#393);
#400=APPLICATION_CONTEXT('automotive design');
#401=APPLICATION_PROTOCOL_DEFINITION('International Standard','automotive_design',2001,#400);
#402=PRODUCT_CONTEXT('',#400,'mechanical');
#403=PRODUCT('138000101-DN32','138000101-DN32',$,(#402));
#404=PRODUCT_RELATED_PRODUCT_CATEGORY('part',$,(#403));
#405=PRODUCT_DEFINITION_FORMATION('',$,#403);
#406=PRODUCT_DEFINITION_CONTEXT('part definition',#400,'design');
#407=PRODUCT_DEFINITION('',$,#405,#406);
#413=(NAMED_UNIT(*)PLANE_ANGLE_UNIT()SI_UNIT($,.RADIAN.));
#414=DIMENSIONAL_EXPONENTS(0.0,0.0,0.0,0.0,0.0,0.0,0.0);
#415=PLANE_ANGLE_MEASURE_WITH_UNIT(PLANE_ANGLE_MEASURE(0.017453292500000),#413);
#419=(CONVERSION_BASED_UNIT('DEGREE',#415)NAMED_UNIT(#414)PLANE_ANGLE_UNIT());
#423=(NAMED_UNIT(*)SI_UNIT($,.STERADIAN.)SOLID_ANGLE_UNIT());
#427=(LENGTH_UNIT()NAMED_UNIT(*)SI_UNIT(.MILLI.,.METRE.));
#429=UNCERTAINTY_MEASURE_WITH_UNIT(LENGTH_MEASURE(0.010000000000000),#427,'DISTANCE_ACCURACY_VALUE','');
#431=(GEOMETRIC_REPRESENTATION_CONTEXT(3)GLOBAL_UNCERTAINTY_ASSIGNED_CONTEXT((#429))GLOBAL_UNIT_ASSIGNED_CONTEXT((#419,#423,#427))REPRESENTATION_CONTEXT('None','None'));
#432=AXIS2_PLACEMENT_3D('',#433,#434,#435);
#433=CARTESIAN_POINT('',(0.0,0.0,0.0));
#434=DIRECTION('',(0.0,0.0,1.0));
#435=DIRECTION('',(1.0,0.0,0.0));
#436=SHAPE_REPRESENTATION('',(#432),#431);
#437=PRODUCT_DEFINITION_SHAPE('','',#407);
#438=SHAPE_DEFINITION_REPRESENTATION(#437,#436);
#444=(NAMED_UNIT(*)PLANE_ANGLE_UNIT()SI_UNIT($,.RADIAN.));
#445=DIMENSIONAL_EXPONENTS(0.0,0.0,0.0,0.0,0.0,0.0,0.0);
#446=PLANE_ANGLE_MEASURE_WITH_UNIT(PLANE_ANGLE_MEASURE(0.017453292500000),#444);
#450=(CONVERSION_BASED_UNIT('DEGREE',#446)NAMED_UNIT(#445)PLANE_ANGLE_UNIT());
#454=(NAMED_UNIT(*)SI_UNIT($,.STERADIAN.)SOLID_ANGLE_UNIT());
#458=(LENGTH_UNIT()NAMED_UNIT(*)SI_UNIT(.MILLI.,.METRE.));
#460=UNCERTAINTY_MEASURE_WITH_UNIT(LENGTH_MEASURE(0.000001000000000),#458,'DISTANCE_ACCURACY_VALUE','');
#462=(GEOMETRIC_REPRESENTATION_CONTEXT(3)GLOBAL_UNCERTAINTY_ASSIGNED_CONTEXT((#460))GLOBAL_UNIT_ASSIGNED_CONTEXT((#450,#454,#458))REPRESENTATION_CONTEXT('','3D'));
#463=CARTESIAN_POINT('',(-5.134781E-015,18.0,0.0));
#464=DIRECTION('',(1.0,0.0,0.0));
#465=DIRECTION('',(0.0,0.0,-1.0));
#466=AXIS2_PLACEMENT_3D('',#463,#464,#465);
#467=PLANE('',#466);
#468=CARTESIAN_POINT('',(-5.828671E-015,20.0,0.0));
#469=VERTEX_POINT('',#468);
#470=CARTESIAN_POINT('',(-5.828671E-015,0.0,0.0));
#471=DIRECTION('',(1.0,0.0,0.0));
#472=DIRECTION('',(0.0,1.0,0.0));
#473=AXIS2_PLACEMENT_3D('',#470,#471,#472);
#474=CIRCLE('',#473,20.0);
#475=EDGE_CURVE('',#469,#469,#474,.T.);
#476=ORIENTED_EDGE('',*,*,#475,.T.);
#477=EDGE_LOOP('',(#476));
#478=FACE_OUTER_BOUND('',#477,.T.);
#479=CARTESIAN_POINT('',(-4.440892E-015,15.999999999999996,0.0));
#480=VERTEX_POINT('',#479);
#481=CARTESIAN_POINT('',(-4.440892E-015,0.0,0.0));
#482=DIRECTION('',(1.0,0.0,0.0));
#483=DIRECTION('',(0.0,1.0,0.0));
#484=AXIS2_PLACEMENT_3D('',#481,#482,#483);
#485=CIRCLE('',#484,15.999999999999996);
#486=EDGE_CURVE('',#480,#480,#485,.T.);
#487=ORIENTED_EDGE('',*,*,#486,.F.);
#488=EDGE_LOOP('',(#487));
#489=FACE_BOUND('',#488,.T.);
#490=ADVANCED_FACE('',(#478,#489),#467,.T.);
#491=CARTESIAN_POINT('',(-32.500000000000000,0.0,0.0));
#492=DIRECTION('',(1.0,0.0,0.0));
#493=DIRECTION('',(0.0,1.0,0.0));
#494=AXIS2_PLACEMENT_3D('',#491,#492,#493);
#495=CYLINDRICAL_SURFACE('',#494,15.999999999999988);
#496=CARTESIAN_POINT('',(-65.0,15.999999999999979,0.0));
#497=VERTEX_POINT('',#496);
#498=CARTESIAN_POINT('',(-65.0,0.0,0.0));
#499=DIRECTION('',(1.0,0.0,0.0));
#500=DIRECTION('',(0.0,1.0,0.0));
#501=AXIS2_PLACEMENT_3D('',#498,#499,#500);
#502=CIRCLE('',#501,15.999999999999979);
#503=EDGE_CURVE('',#497,#497,#502,.T.);
#504=ORIENTED_EDGE('',*,*,#503,.F.);
#505=EDGE_LOOP('',(#504));
#506=FACE_OUTER_BOUND('',#505,.T.);
#507=ORIENTED_EDGE('',*,*,#486,.T.);
#508=EDGE_LOOP('',(#507));
#509=FACE_BOUND('',#508,.T.);
#510=ADVANCED_FACE('',(#506,#509),#495,.F.);
#511=CARTESIAN_POINT('',(-65.0,17.294692077166125,0.0));
#512=DIRECTION('',(-1.0,0.0,0.0));
#513=DIRECTION('',(0.0,0.0,1.0));
#514=AXIS2_PLACEMENT_3D('',#511,#512,#513);
#515=PLANE('',#514);
#516=CARTESIAN_POINT('',(-65.0,18.589384154332272,0.0));
#517=VERTEX_POINT('',#516);
#518=CARTESIAN_POINT('',(-65.0,0.0,0.0));
#519=DIRECTION('',(1.0,0.0,0.0));
#520=DIRECTION('',(0.0,1.0,0.0));
#521=AXIS2_PLACEMENT_3D('',#518,#519,#520);
#522=CIRCLE('',#521,18.589384154332272);
#523=EDGE_CURVE('',#517,#517,#522,.T.);
#524=ORIENTED_EDGE('',*,*,#523,.F.);
#525=EDGE_LOOP('',(#524));
#526=FACE_OUTER_BOUND('',#525,.T.);
#527=ORIENTED_EDGE('',*,*,#503,.T.);
#528=EDGE_LOOP('',(#527));
#529=FACE_BOUND('',#528,.T.);
#530=ADVANCED_FACE('',(#526,#529),#515,.T.);
#531=CARTESIAN_POINT('',(-61.0,0.0,0.0));
#532=DIRECTION('',(1.0,0.0,0.0));
#533=DIRECTION('',(0.0,1.0,0.0));
#534=AXIS2_PLACEMENT_3D('',#531,#532,#533);
#535=CONICAL_SURFACE('',#534,19.294692077166133,10.000000000000034);
#536=CARTESIAN_POINT('',(-57.0,19.999999999999996,0.0));
#537=VERTEX_POINT('',#536);
#538=CARTESIAN_POINT('',(-57.0,0.0,0.0));
#539=DIRECTION('',(1.0,0.0,0.0));
#540=DIRECTION('',(0.0,1.0,0.0));
#541=AXIS2_PLACEMENT_3D('',#538,#539,#540);
#542=CIRCLE('',#541,19.999999999999996);
#543=EDGE_CURVE('',#537,#537,#542,.T.);
#544=ORIENTED_EDGE('',*,*,#543,.F.);
#545=EDGE_LOOP('',(#544));
#546=FACE_OUTER_BOUND('',#545,.T.);
#547=ORIENTED_EDGE('',*,*,#523,.T.);
#548=EDGE_LOOP('',(#547));
#549=FACE_BOUND('',#548,.T.);
#550=ADVANCED_FACE('',(#546,#549),#535,.T.);
#551=CARTESIAN_POINT('',(-56.711324865405182,0.0,0.0));
#552=DIRECTION('',(-1.0,0.0,0.0));
#553=DIRECTION('',(0.0,1.0,0.0));
#554=AXIS2_PLACEMENT_3D('',#551,#552,#553);
#555=CONICAL_SURFACE('',#554,19.499999999999996,59.999999999999780);
#556=CARTESIAN_POINT('',(-56.422649730810370,18.999999999999993,0.0));
#557=VERTEX_POINT('',#556);
#558=CARTESIAN_POINT('',(-56.422649730810370,0.0,0.0));
#559=DIRECTION('',(1.0,0.0,0.0));
#560=DIRECTION('',(0.0,1.0,0.0));
#561=AXIS2_PLACEMENT_3D('',#558,#559,#560);
#562=CIRCLE('',#561,18.999999999999993);
#563=EDGE_CURVE('',#557,#557,#562,.T.);
#564=ORIENTED_EDGE('',*,*,#563,.F.);
#565=EDGE_LOOP('',(#564));
#566=FACE_OUTER_BOUND('',#565,.T.);
#567=ORIENTED_EDGE('',*,*,#543,.T.);
#568=EDGE_LOOP('',(#567));
#569=FACE_BOUND('',#568,.T.);
#570=ADVANCED_FACE('',(#566,#569),#555,.T.);
#571=CARTESIAN_POINT('',(-44.952944714114757,0.0,0.0));
#572=DIRECTION('',(1.0,0.0,0.0));
#573=DIRECTION('',(0.0,1.0,0.0));
#574=AXIS2_PLACEMENT_3D('',#571,#572,#573);
#575=CYLINDRICAL_SURFACE('',#574,18.999999999999993);
#576=CARTESIAN_POINT('',(-33.483239697419137,18.999999999999993,0.0));
#577=VERTEX_POINT('',#576);
#578=CARTESIAN_POINT('',(-33.483239697419137,0.0,0.0));
#579=DIRECTION('',(1.0,0.0,0.0));
#580=DIRECTION('',(0.0,1.0,0.0));
#581=AXIS2_PLACEMENT_3D('',#578,#579,#580);
#582=CIRCLE('',#581,18.999999999999993);
#583=EDGE_CURVE('',#577,#577,#582,.T.);
#584=ORIENTED_EDGE('',*,*,#583,.F.);
#585=EDGE_LOOP('',(#584));
#586=FACE_OUTER_BOUND('',#585,.T.);
#587=ORIENTED_EDGE('',*,*,#563,.T.);
#588=EDGE_LOOP('',(#587));
#589=FACE_BOUND('',#588,.T.);
#590=ADVANCED_FACE('',(#586,#589),#575,.T.);
#591=CARTESIAN_POINT('',(-32.0,0.0,0.0));
#592=DIRECTION('',(1.0,0.0,0.0));
#593=DIRECTION('',(0.0,0.0,-1.0));
#594=AXIS2_PLACEMENT_3D('',#591,#592,#593);
#595=TOROIDAL_SURFACE('',#594,18.399999999999999,1.600000000000000);
#596=CARTESIAN_POINT('',(-30.516760302580870,18.999999999999993,0.0));
#597=VERTEX_POINT('',#596);
#598=CARTESIAN_POINT('',(-30.516760302580870,0.0,0.0));
#599=DIRECTION('',(1.0,0.0,0.0));
#600=DIRECTION('',(0.0,1.0,0.0));
#601=AXIS2_PLACEMENT_3D('',#598,#599,#600);
#602=CIRCLE('',#601,18.999999999999993);
#603=EDGE_CURVE('',#597,#597,#602,.T.);
#604=ORIENTED_EDGE('',*,*,#603,.F.);
#605=EDGE_LOOP('',(#604));
#606=FACE_OUTER_BOUND('',#605,.T.);
#607=ORIENTED_EDGE('',*,*,#583,.T.);
#608=EDGE_LOOP('',(#607));
#609=FACE_BOUND('',#608,.T.);
#610=ADVANCED_FACE('',(#606,#609),#595,.T.);
#611=CARTESIAN_POINT('',(-19.258380151290435,0.0,0.0));
#612=DIRECTION('',(1.0,0.0,0.0));
#613=DIRECTION('',(0.0,1.0,0.0));
#614=AXIS2_PLACEMENT_3D('',#611,#612,#613);
#615=CYLINDRICAL_SURFACE('',#614,18.999999999999996);
#616=CARTESIAN_POINT('',(-7.999999999999996,19.0,0.0));
#617=VERTEX_POINT('',#616);
#618=CARTESIAN_POINT('',(-7.999999999999996,0.0,0.0));
#619=DIRECTION('',(1.0,0.0,0.0));
#620=DIRECTION('',(0.0,1.0,0.0));
#621=AXIS2_PLACEMENT_3D('',#618,#619,#620);
#622=CIRCLE('',#621,19.0);
#623=EDGE_CURVE('',#617,#617,#622,.T.);
#624=ORIENTED_EDGE('',*,*,#623,.F.);
#625=EDGE_LOOP('',(#624));
#626=FACE_OUTER_BOUND('',#625,.T.);
#627=ORIENTED_EDGE('',*,*,#603,.T.);
#628=EDGE_LOOP('',(#627));
#629=FACE_BOUND('',#628,.T.);
#630=ADVANCED_FACE('',(#626,#629),#615,.T.);
#631=CARTESIAN_POINT('',(-7.499999999999996,0.0,0.0));
#632=DIRECTION('',(1.0,0.0,0.0));
#633=DIRECTION('',(0.0,1.0,0.0));
#634=AXIS2_PLACEMENT_3D('',#631,#632,#633);
#635=CONICAL_SURFACE('',#634,19.500000000000000,45.000000000000043);
#636=CARTESIAN_POINT('',(-6.999999999999996,20.0,0.0));
#637=VERTEX_POINT('',#636);
#638=CARTESIAN_POINT('',(-6.999999999999996,0.0,0.0));
#639=DIRECTION('',(1.0,0.0,0.0));
#640=DIRECTION('',(0.0,1.0,0.0));
#641=AXIS2_PLACEMENT_3D('',#638,#639,#640);
#642=CIRCLE('',#641,20.0);
#643=EDGE_CURVE('',#637,#637,#642,.T.);
#644=ORIENTED_EDGE('',*,*,#643,.F.);
#645=EDGE_LOOP('',(#644));
#646=FACE_OUTER_BOUND('',#645,.T.);
#647=ORIENTED_EDGE('',*,*,#623,.T.);
#648=EDGE_LOOP('',(#647));
#649=FACE_BOUND('',#648,.T.);
#650=ADVANCED_FACE('',(#646,#649),#635,.T.);
#651=CARTESIAN_POINT('',(-3.500000000000001,0.0,0.0));
#652=DIRECTION('',(1.0,0.0,0.0));
#653=DIRECTION('',(0.0,1.0,0.0));
#654=AXIS2_PLACEMENT_3D('',#651,#652,#653);
#655=CYLINDRICAL_SURFACE('',#654,20.0);
#656=ORIENTED_EDGE('',*,*,#475,.F.);
#657=EDGE_LOOP('',(#656));
#658=FACE_OUTER_BOUND('',#657,.T.);
#659=ORIENTED_EDGE('',*,*,#643,.T.);
#660=EDGE_LOOP('',(#659));
#661=FACE_BOUND('',#660,.T.);
#662=ADVANCED_FACE('',(#658,#661),#655,.T.);
#663=CLOSED_SHELL('',(#490,#510,#530,#550,#570,#590,#610,#630,#650,#662));
#664=MANIFOLD_SOLID_BREP('',#663);
#665=STYLED_ITEM('',(#383),#664);
#666=ADVANCED_BREP_SHAPE_REPRESENTATION('ABSR',(#664),#431);
#667=SHAPE_REPRESENTATION_RELATIONSHIP('SRR','None',#666,#436);
#668=AXIS2_PLACEMENT_3D('',#669,#670,#671);
#669=CARTESIAN_POINT('',(24.999999999999986,0.0,0.0));
#670=DIRECTION('',(0.0,-0.696835229725339,-0.717231247655618));
#671=DIRECTION('',(-1.0,0.0,0.0));
#672=NEXT_ASSEMBLY_USAGE_OCCURRENCE('138000101-DN32:1','138000101-DN32:1','138000101-DN32:1',#12,#407,'138000101-DN32:1');
#673=PRODUCT_DEFINITION_SHAPE('138000101-DN32:1','138000101-DN32:1',#672);
#674=ITEM_DEFINED_TRANSFORMATION('138000101-DN32:1','138000101-DN32:1',#432,#668);
#678=(REPRESENTATION_RELATIONSHIP('138000101-DN32:1','138000101-DN32:1',#436,#41)REPRESENTATION_RELATIONSHIP_WITH_TRANSFORMATION(#674)SHAPE_REPRESENTATION_RELATIONSHIP());
#679=CONTEXT_DEPENDENT_SHAPE_REPRESENTATION(#678,#673);
ENDSEC;
END-ISO-10303-21;
