ISO-10303-21;
HEADER;
/****************************************************************
 * Generated by software with PDE/Lib inside                    *
 * PDElib Version v51a, created Thu 12/14/2006                  *
 * International Technegroup Inc. (www.iti-oh.com)              *
 ****************************************************************/
FILE_DESCRIPTION((''),'2;1');
FILE_NAME('T:\\Arbeitspl\S\dtze\\Aushilfe\\KPeters\\3D\\Steps 08_10\\47220\\47220032X.stp','2010-08-17T10:30:45',('thilbrands'),(''),'Autodesk Inventor 2008','Autodesk Inventor 2008','');
FILE_SCHEMA(('AUTOMOTIVE_DESIGN { 1 0 10303 214 1 1 1 1 }'));
ENDSEC;
DATA;
#5=APPLICATION_CONTEXT('automotive design');
#6=APPLICATION_PROTOCOL_DEFINITION('International Standard','automotive_design',2001,#5);
#7=PRODUCT_CONTEXT('',#5,'mechanical');
#8=PRODUCT('472200101','472200101',$,(#7));
#9=PRODUCT_RELATED_PRODUCT_CATEGORY('part',$,(#8));
#10=PRODUCT_DEFINITION_FORMATION('',$,#8);
#11=PRODUCT_DEFINITION_CONTEXT('part definition',#5,'design');
#12=PRODUCT_DEFINITION('',$,#10,#11);
#18=(NAMED_UNIT(*)PLANE_ANGLE_UNIT()SI_UNIT($,.RADIAN.));
#19=DIMENSIONAL_EXPONENTS(0.0,0.0,0.0,0.0,0.0,0.0,0.0);
#20=PLANE_ANGLE_MEASURE_WITH_UNIT(PLANE_ANGLE_MEASURE(0.017453292500000),#18);
#24=(CONVERSION_BASED_UNIT('DEGREE',#20)NAMED_UNIT(#19)PLANE_ANGLE_UNIT());
#28=(NAMED_UNIT(*)SI_UNIT($,.STERADIAN.)SOLID_ANGLE_UNIT());
#32=(LENGTH_UNIT()NAMED_UNIT(*)SI_UNIT(.MILLI.,.METRE.));
#34=UNCERTAINTY_MEASURE_WITH_UNIT(LENGTH_MEASURE(0.010000000000000),#32,'DISTANCE_ACCURACY_VALUE','');
#36=(GEOMETRIC_REPRESENTATION_CONTEXT(3)GLOBAL_UNCERTAINTY_ASSIGNED_CONTEXT((#34))GLOBAL_UNIT_ASSIGNED_CONTEXT((#24,#28,#32))REPRESENTATION_CONTEXT('None','None'));
#37=AXIS2_PLACEMENT_3D('',#38,#39,#40);
#38=CARTESIAN_POINT('',(0.0,0.0,0.0));
#39=DIRECTION('',(0.0,0.0,1.0));
#40=DIRECTION('',(1.0,0.0,0.0));
#41=SHAPE_REPRESENTATION('',(#37),#36);
#42=PRODUCT_DEFINITION_SHAPE('','',#12);
#43=SHAPE_DEFINITION_REPRESENTATION(#42,#41);
#49=(NAMED_UNIT(*)PLANE_ANGLE_UNIT()SI_UNIT($,.RADIAN.));
#50=DIMENSIONAL_EXPONENTS(0.0,0.0,0.0,0.0,0.0,0.0,0.0);
#51=PLANE_ANGLE_MEASURE_WITH_UNIT(PLANE_ANGLE_MEASURE(0.017453292500000),#49);
#55=(CONVERSION_BASED_UNIT('DEGREE',#51)NAMED_UNIT(#50)PLANE_ANGLE_UNIT());
#59=(NAMED_UNIT(*)SI_UNIT($,.STERADIAN.)SOLID_ANGLE_UNIT());
#63=(LENGTH_UNIT()NAMED_UNIT(*)SI_UNIT(.MILLI.,.METRE.));
#65=UNCERTAINTY_MEASURE_WITH_UNIT(LENGTH_MEASURE(0.000001000000000),#63,'DISTANCE_ACCURACY_VALUE','');
#67=(GEOMETRIC_REPRESENTATION_CONTEXT(3)GLOBAL_UNCERTAINTY_ASSIGNED_CONTEXT((#65))GLOBAL_UNIT_ASSIGNED_CONTEXT((#55,#59,#63))REPRESENTATION_CONTEXT('','3D'));
#68=CARTESIAN_POINT('',(0.0,0.0,-110.0));
#69=DIRECTION('',(0.0,0.0,1.0));
#70=DIRECTION('',(1.0,0.0,0.0));
#71=AXIS2_PLACEMENT_3D('',#68,#69,#70);
#72=CYLINDRICAL_SURFACE('',#71,16.0);
#73=CARTESIAN_POINT('',(-9.796851E-016,16.0,-5.514117E-015));
#74=VERTEX_POINT('',#73);
#75=CARTESIAN_POINT('',(-9.796851E-016,-16.0,-5.514117E-015));
#76=VERTEX_POINT('',#75);
#77=CARTESIAN_POINT('',(-9.796851E-016,16.0,-5.514117E-015));
#78=CARTESIAN_POINT('',(-9.943713E-016,16.0,-0.090943682906195));
#79=CARTESIAN_POINT('',(0.000112782998409,16.000000001192486,-0.181887224620250));
#80=CARTESIAN_POINT('',(0.000338347960517,15.999999996422520,-0.272830627794917));
#81=CARTESIAN_POINT('',(0.011964441874485,15.999999750568449,-4.960245447413242));
#82=CARTESIAN_POINT('',(0.322787037113475,16.005255498554160,-9.418871463194693));
#83=CARTESIAN_POINT('',(0.843975231123299,15.977725301470493,-13.626244928340641));
#84=CARTESIAN_POINT('',(1.467803862919063,15.944773432304691,-18.662199430729707));
#85=CARTESIAN_POINT('',(2.392641512451214,15.858296439468209,-23.338416894465684));
#86=CARTESIAN_POINT('',(3.466644888388717,15.619935122074239,-27.616333490264754));
#87=CARTESIAN_POINT('',(4.194586009794681,15.458377897422025,-30.515832201159277));
#88=CARTESIAN_POINT('',(4.990258600512330,15.227792645458621,-33.231385513651134));
#89=CARTESIAN_POINT('',(5.817382413248740,14.904967690606522,-35.774629710378882));
#90=CARTESIAN_POINT('',(6.848186613135267,14.502646642456783,-38.944151321237705));
#91=CARTESIAN_POINT('',(7.926313739216948,13.957385092715237,-41.840677864528253));
#92=CARTESIAN_POINT('',(8.984379393594987,13.239370336686932,-44.458558980143501));
#93=CARTESIAN_POINT('',(9.509159071567273,12.883249191568222,-45.756976335567316));
#94=CARTESIAN_POINT('',(10.029171607062933,12.484838946719146,-46.986850374108421));
#95=CARTESIAN_POINT('',(10.537047790487362,12.040374739225745,-48.147175554825850));
#96=CARTESIAN_POINT('',(10.833736746483552,11.780729522531876,-48.825009400394173));
#97=CARTESIAN_POINT('',(11.122711862495356,11.508420450025874,-49.470928914779236));
#98=CARTESIAN_POINT('',(11.401977143280975,11.224745753205204,-50.084278686248595));
#99=CARTESIAN_POINT('',(12.244727903228977,10.368688510245740,-51.935210476142437));
#100=CARTESIAN_POINT('',(13.000036310890781,9.407597548213262,-53.494524710549179));
#101=CARTESIAN_POINT('',(13.640943833731395,8.362096108332255,-54.781453462106207));
#102=CARTESIAN_POINT('',(14.105682034531862,7.603976659287451,-55.714637940743913));
#103=CARTESIAN_POINT('',(14.509771432089927,6.801712813491625,-56.502754370742629));
#104=CARTESIAN_POINT('',(14.843032135863041,5.973641855161477,-57.144265415611663));
#105=CARTESIAN_POINT('',(15.043696974137037,5.475039040453870,-57.530535709745308));
#106=CARTESIAN_POINT('',(15.219180755425439,4.966423240867711,-57.864494530273767));
#107=CARTESIAN_POINT('',(15.368658273350508,4.450207060011364,-58.147268380699650));
#108=CARTESIAN_POINT('',(15.491075824984657,4.027441671265457,-58.378851584085794));
#109=CARTESIAN_POINT('',(15.596249700588654,3.600245509007188,-58.576470373798671));
#110=CARTESIAN_POINT('',(15.685526438261114,3.156621667956359,-58.743644902384517));
#111=CARTESIAN_POINT('',(15.811479618791097,2.530749406088124,-58.979497646648532));
#112=CARTESIAN_POINT('',(15.903762176575121,1.878440872955174,-59.150964614998202));
#113=CARTESIAN_POINT('',(15.954675935081937,1.203459931413326,-59.245495235655063));
#114=CARTESIAN_POINT('',(15.992469779498908,0.702414134811243,-59.315666357853139));
#115=CARTESIAN_POINT('',(16.006689024463711,0.196038392602048,-59.341991066608877));
#116=CARTESIAN_POINT('',(15.997066186568611,-0.306387699725731,-59.324148211711353));
#117=CARTESIAN_POINT('',(15.988382860969615,-0.759760124438003,-59.308047418953556));
#118=CARTESIAN_POINT('',(15.960320792895377,-1.212738515317570,-59.256038630953221));
#119=CARTESIAN_POINT('',(15.913613697564719,-1.660391244460344,-59.169206632033180));
#120=CARTESIAN_POINT('',(15.788403471998349,-2.860438020963171,-58.936431416743339));
#121=CARTESIAN_POINT('',(15.534417774639783,-3.975802190833438,-58.463380058007054));
#122=CARTESIAN_POINT('',(15.204017826919609,-4.983757811000730,-57.834971443948298));
#123=CARTESIAN_POINT('',(14.959183646822016,-5.730676778577044,-57.369305789788918));
#124=CARTESIAN_POINT('',(14.673767760233570,-6.415937381923904,-56.820660311211832));
#125=CARTESIAN_POINT('',(14.367729270812371,-7.040479784832953,-56.221885770389477));
#126=CARTESIAN_POINT('',(14.069028373087795,-7.650048132816948,-55.637467473146799));
#127=CARTESIAN_POINT('',(13.751773671466394,-8.201016991022858,-55.007608895448385));
#128=CARTESIAN_POINT('',(13.421563289468210,-8.709858716810468,-54.339156449865939));
#129=CARTESIAN_POINT('',(13.095339653580275,-9.212557017431552,-53.678774465821334));
#130=CARTESIAN_POINT('',(12.757627660040434,-9.671268760429355,-52.982919317789118));
#131=CARTESIAN_POINT('',(12.417745541720468,-10.089578567070154,-52.267619222406758));
#132=CARTESIAN_POINT('',(12.208897115169247,-10.346618700160157,-51.828086539219505));
#133=CARTESIAN_POINT('',(11.999211913651404,-10.588393726431073,-51.381217160603754));
#134=CARTESIAN_POINT('',(11.790675537097377,-10.815727917199725,-50.930821887747150));
#135=CARTESIAN_POINT('',(11.635466360449991,-10.984927905978951,-50.595602293827348));
#136=CARTESIAN_POINT('',(11.480409044656822,-11.146769198400731,-50.257455923268459));
#137=CARTESIAN_POINT('',(11.322008234524915,-11.305402670287780,-49.908334089563468));
#138=CARTESIAN_POINT('',(10.125079567794991,-12.504089405831555,-47.270254583563201));
#139=CARTESIAN_POINT('',(8.791646486223447,-13.455148170724788,-44.132624255031786));
#140=CARTESIAN_POINT('',(7.439054015618364,-14.165467706811249,-40.454812858744518));
#141=CARTESIAN_POINT('',(7.141096176355492,-14.321941499737102,-39.644640718451662));
#142=CARTESIAN_POINT('',(6.845470423077672,-14.465175208968253,-38.816415094445219));
#143=CARTESIAN_POINT('',(6.554468249843646,-14.595853725006688,-37.973451449211233));
#144=CARTESIAN_POINT('',(4.718443949749148,-15.420345612061775,-32.654928499552156));
#145=CARTESIAN_POINT('',(3.049631637638326,-15.752839628382528,-26.710535726388247));
#146=CARTESIAN_POINT('',(1.852660961710411,-15.892377020476021,-20.188744675593128));
#147=CARTESIAN_POINT('',(1.678321391051278,-15.912700733928412,-19.238841495347909));
#148=CARTESIAN_POINT('',(1.515025875087301,-15.928828518904304,-18.281723442335498));
#149=CARTESIAN_POINT('',(1.364310848857949,-15.941726879723177,-17.324791102600695));
#150=CARTESIAN_POINT('',(0.736935132120329,-15.995418396527661,-13.341405188598083));
#151=CARTESIAN_POINT('',(0.320280085087984,-15.997972453740362,-9.322158685669498));
#152=CARTESIAN_POINT('',(0.126116182380237,-15.999502951921407,-5.267405445156333));
#153=CARTESIAN_POINT('',(0.046677392075640,-16.000129128684286,-3.608473543201101));
#154=CARTESIAN_POINT('',(0.004482327591437,-15.999999908790832,-1.943602572173716));
#155=CARTESIAN_POINT('',(0.000338347960517,-15.999999996422522,-0.272830627794913));
#156=CARTESIAN_POINT('',(0.000112782998409,-16.000000001192486,-0.181887224620250));
#157=CARTESIAN_POINT('',(-9.943713E-016,-16.0,-0.090943682906195));
#158=CARTESIAN_POINT('',(-9.796851E-016,-16.0,-5.514117E-015));
#159=B_SPLINE_CURVE_WITH_KNOTS('',3,(#77,#78,#79,#80,#81,#82,#83,#84,#85,#86,#87,#88,#89,#90,#91,#92,#93,#94,#95,#96,#97,#98,#99,#100,#101,#102,#103,#104,#105,#106,#107,#108,#109,#110,#111,#112,#113,#114,#115,#116,#117,#118,#119,#120,#121,#122,#123,#124,#125,#126,#127,#128,#129,#130,#131,#132,#133,#134,#135,#136,#137,#138,#139,#140,#141,#142,#143,#144,#145,#146,#147,#148,#149,#150,#151,#152,#153,#154,#155,#156,#157,#158),.UNSPECIFIED.,.F.,.U.,(4,3,3,3,3,3,3,3,3,3,3,3,3,3,3,3,3,3,3,3,3,3,3,3,3,3,3,4),(-14.119836387398390,-14.105571396622686,-13.370323683983985,-12.490279623358697,-11.893800808923846,-11.150438258366105,-10.781745107535439,-10.566363505536824,-9.916397250324129,-9.445090334328256,-9.161304322341332,-8.928892189348373,-8.601001093555670,-8.357603917162951,-8.137970483083066,-7.549187309383818,-7.112885044257544,-6.687043580594062,-6.266343450732896,-6.007834528269714,-5.815431851698231,-4.361573888773673,-4.041308630285036,-2.020654315142518,-1.726344677624141,-0.501233125044770,0.0,0.027283104871857),.UNSPECIFIED.);
#160=EDGE_CURVE('',#74,#76,#159,.T.);
#161=ORIENTED_EDGE('',*,*,#160,.F.);
#162=CARTESIAN_POINT('',(0.0,0.0,-4.329674E-015));
#163=DIRECTION('',(0.0,0.0,-1.0));
#164=DIRECTION('',(-1.0,0.0,0.0));
#165=AXIS2_PLACEMENT_3D('',#162,#163,#164);
#166=CIRCLE('',#165,16.0);
#167=EDGE_CURVE('',#76,#74,#166,.T.);
#168=ORIENTED_EDGE('',*,*,#167,.F.);
#169=EDGE_LOOP('',(#161,#168));
#170=FACE_OUTER_BOUND('',#169,.T.);
#171=CARTESIAN_POINT('',(-16.0,1.959435E-015,-110.0));
#172=VERTEX_POINT('',#171);
#173=CARTESIAN_POINT('',(0.0,0.0,-110.0));
#174=DIRECTION('',(0.0,0.0,1.0));
#175=DIRECTION('',(1.0,0.0,0.0));
#176=AXIS2_PLACEMENT_3D('',#173,#174,#175);
#177=CIRCLE('',#176,16.0);
#178=EDGE_CURVE('',#172,#172,#177,.T.);
#179=ORIENTED_EDGE('',*,*,#178,.F.);
#180=EDGE_LOOP('',(#179));
#181=FACE_BOUND('',#180,.T.);
#182=ADVANCED_FACE('',(#170,#181),#72,.F.);
#183=CARTESIAN_POINT('',(55.0,0.0,-8.881784E-015));
#184=DIRECTION('',(0.0,1.0,0.0));
#185=DIRECTION('',(0.0,0.0,1.0));
#186=AXIS2_PLACEMENT_3D('',#183,#184,#185);
#187=TOROIDAL_SURFACE('',#186,55.0,16.0);
#188=CARTESIAN_POINT('',(54.999999999999993,1.959435E-015,-39.000000000000007));
#189=VERTEX_POINT('',#188);
#190=CARTESIAN_POINT('',(54.999999999999986,0.0,-55.000000000000007));
#191=DIRECTION('',(-1.0,0.0,0.0));
#192=DIRECTION('',(0.0,0.0,-1.0));
#193=AXIS2_PLACEMENT_3D('',#190,#191,#192);
#194=CIRCLE('',#193,16.0);
#195=EDGE_CURVE('',#189,#189,#194,.T.);
#196=ORIENTED_EDGE('',*,*,#195,.F.);
#197=EDGE_LOOP('',(#196));
#198=FACE_OUTER_BOUND('',#197,.T.);
#199=ORIENTED_EDGE('',*,*,#160,.T.);
#200=CARTESIAN_POINT('',(0.0,0.0,-4.329674E-015));
#201=DIRECTION('',(0.0,0.0,-1.0));
#202=DIRECTION('',(-1.0,0.0,0.0));
#203=AXIS2_PLACEMENT_3D('',#200,#201,#202);
#204=CIRCLE('',#203,16.0);
#205=EDGE_CURVE('',#74,#76,#204,.T.);
#206=ORIENTED_EDGE('',*,*,#205,.F.);
#207=EDGE_LOOP('',(#199,#206));
#208=FACE_BOUND('',#207,.T.);
#209=ADVANCED_FACE('',(#198,#208),#187,.F.);
#210=CARTESIAN_POINT('',(0.0,0.0,-110.0));
#211=DIRECTION('',(0.0,0.0,1.0));
#212=DIRECTION('',(-1.0,0.0,0.0));
#213=AXIS2_PLACEMENT_3D('',#210,#211,#212);
#214=CYLINDRICAL_SURFACE('',#213,17.500000000000000);
#215=CARTESIAN_POINT('',(17.500000000000000,2.143132E-015,-110.0));
#216=VERTEX_POINT('',#215);
#217=CARTESIAN_POINT('',(0.0,0.0,-110.0));
#218=DIRECTION('',(0.0,0.0,-1.0));
#219=DIRECTION('',(-1.0,0.0,0.0));
#220=AXIS2_PLACEMENT_3D('',#217,#218,#219);
#221=CIRCLE('',#220,17.500000000000000);
#222=EDGE_CURVE('',#216,#216,#221,.T.);
#223=ORIENTED_EDGE('',*,*,#222,.F.);
#224=EDGE_LOOP('',(#223));
#225=FACE_OUTER_BOUND('',#224,.T.);
#226=CARTESIAN_POINT('',(-1.071531E-015,-17.500000000000000,-5.514117E-015));
#227=VERTEX_POINT('',#226);
#228=CARTESIAN_POINT('',(-1.071531E-015,17.500000000000000,-5.514117E-015));
#229=VERTEX_POINT('',#228);
#230=CARTESIAN_POINT('',(-1.071531E-015,-17.500000000000000,-5.514117E-015));
#231=CARTESIAN_POINT('',(-1.086557E-015,-17.500000000000000,-0.093048255895971));
#232=CARTESIAN_POINT('',(0.000118063275202,-17.500000001194749,-0.186096338306965));
#233=CARTESIAN_POINT('',(0.000354188793438,-17.499999996415720,-0.279144294598440));
#234=CARTESIAN_POINT('',(0.009067329100571,-17.499999820067341,-3.712656709974516));
#235=CARTESIAN_POINT('',(0.178485620368328,-17.502092938047138,-7.124668781419000));
#236=CARTESIAN_POINT('',(0.502565299390313,-17.492782172080251,-10.514959147133711));
#237=CARTESIAN_POINT('',(0.729759667046645,-17.486254908190620,-12.891704514613718));
#238=CARTESIAN_POINT('',(1.032966295055067,-17.473584148919386,-15.257793617554048));
#239=CARTESIAN_POINT('',(1.410104020388988,-17.443096246127944,-17.613145218432088));
#240=CARTESIAN_POINT('',(1.586231255780189,-17.428858078819758,-18.713118883144585));
#241=CARTESIAN_POINT('',(1.778796821326384,-17.410586648277075,-19.811671622556620));
#242=CARTESIAN_POINT('',(1.983973468252720,-17.387174850367980,-20.891964077501164));
#243=CARTESIAN_POINT('',(3.078460299579889,-17.262287808430912,-26.654636796991518));
#244=CARTESIAN_POINT('',(4.547342746989181,-16.990560239777839,-32.008464365023912));
#245=CARTESIAN_POINT('',(6.195956757228657,-16.366432716464267,-36.920326198319344));
#246=CARTESIAN_POINT('',(6.584648059844153,-16.219283087425449,-38.078388644952085));
#247=CARTESIAN_POINT('',(6.984074175483049,-16.052024173623355,-39.213374675202765));
#248=CARTESIAN_POINT('',(7.384191592572983,-15.865803305353765,-40.305361310451701));
#249=CARTESIAN_POINT('',(8.819119537581928,-15.197965524715981,-44.221517097648515));
#250=CARTESIAN_POINT('',(10.278606855141458,-14.278366022525017,-47.643799636073112));
#251=CARTESIAN_POINT('',(11.630121614149360,-13.076324836898777,-50.582870174722785));
#252=CARTESIAN_POINT('',(11.828738412357506,-12.899674474768318,-51.014792043280842));
#253=CARTESIAN_POINT('',(12.025149822274081,-12.717034943532129,-51.436473880933747));
#254=CARTESIAN_POINT('',(12.223985357138467,-12.522946218381055,-51.858237326103392));
#255=CARTESIAN_POINT('',(12.803497028356857,-11.957269255489791,-53.087478563771441));
#256=CARTESIAN_POINT('',(13.392016637328028,-11.304675638363227,-54.291074700254669));
#257=CARTESIAN_POINT('',(13.961394971971238,-10.551277194568257,-55.421177304651991));
#258=CARTESIAN_POINT('',(14.262115138550637,-10.153365838034725,-56.018046947855282));
#259=CARTESIAN_POINT('',(14.557425854427070,-9.727339438388412,-56.594478898749252));
#260=CARTESIAN_POINT('',(14.842601238516229,-9.270770651590755,-57.143435952640893));
#261=CARTESIAN_POINT('',(15.011596444834261,-9.000207550327007,-57.468748429657325));
#262=CARTESIAN_POINT('',(15.173453003241210,-8.724576891931022,-57.777546034202466));
#263=CARTESIAN_POINT('',(15.327511305492107,-8.444962828811718,-58.069376500942944));
#264=CARTESIAN_POINT('',(15.837549857512307,-7.519248668690726,-59.035535328587855));
#265=CARTESIAN_POINT('',(16.263273635623207,-6.547739433639516,-59.818825116476809));
#266=CARTESIAN_POINT('',(16.598168958704935,-5.545339233832669,-60.428446702816103));
#267=CARTESIAN_POINT('',(16.767964433688025,-5.037111718192475,-60.737531302325912));
#268=CARTESIAN_POINT('',(16.914213511881570,-4.523626247459277,-61.001457943448465));
#269=CARTESIAN_POINT('',(17.039788668531429,-3.986928909798594,-61.227065151588931));
#270=CARTESIAN_POINT('',(17.217925441750541,-3.225587777708751,-61.547104091975640));
#271=CARTESIAN_POINT('',(17.351367433132058,-2.425199190922114,-61.784457083083524));
#272=CARTESIAN_POINT('',(17.427519711661201,-1.591086641154478,-61.919741089296110));
#273=CARTESIAN_POINT('',(17.475239695132089,-1.068399233022131,-62.004515316213947));
#274=CARTESIAN_POINT('',(17.499552762805440,-0.541240219994618,-62.047575363012335));
#275=CARTESIAN_POINT('',(17.499993860309871,-0.014659096724538,-62.048357345446085));
#276=CARTESIAN_POINT('',(17.500442438763795,0.520852765774192,-62.049152590188129));
#277=CARTESIAN_POINT('',(17.476037372583090,1.059267014124112,-62.005932120243237));
#278=CARTESIAN_POINT('',(17.427626812660709,1.589913104112795,-61.919931353202877));
#279=CARTESIAN_POINT('',(17.342632487882156,2.521567399937526,-61.768939975768845));
#280=CARTESIAN_POINT('',(17.185997466833960,3.412588383556132,-61.490356341310374));
#281=CARTESIAN_POINT('',(16.974830654294696,4.255011663675800,-61.110250727229342));
#282=CARTESIAN_POINT('',(16.861278422496902,4.708013924901014,-60.905853832287590));
#283=CARTESIAN_POINT('',(16.732020368880445,5.148049511869906,-60.672204578449055));
#284=CARTESIAN_POINT('',(16.584748484182640,5.585348486567481,-60.404012006821048));
#285=CARTESIAN_POINT('',(16.214065715823526,6.686028326946527,-59.728972333712946));
#286=CARTESIAN_POINT('',(15.733323947057345,7.750285006487287,-58.843543765024314));
#287=CARTESIAN_POINT('',(15.150908261595969,8.757852410762752,-57.733870626791635));
#288=CARTESIAN_POINT('',(14.633488266437496,9.652978580019433,-56.748033390356291));
#289=CARTESIAN_POINT('',(14.039024783905628,10.497532543705812,-55.591051606518775));
#290=CARTESIAN_POINT('',(13.381032871628562,11.278207272806959,-54.257047761173702));
#291=CARTESIAN_POINT('',(12.897984700815094,11.851319940085183,-53.277722475666643));
#292=CARTESIAN_POINT('',(12.380596335947757,12.390244618725600,-52.202597850192355));
#293=CARTESIAN_POINT('',(11.835643882722746,12.890598662644322,-51.027851749794493));
#294=CARTESIAN_POINT('',(11.415937802266674,13.275956382149371,-50.123097438824431));
#295=CARTESIAN_POINT('',(10.978016151495943,13.639560176831253,-49.154617576131052));
#296=CARTESIAN_POINT('',(10.537496329405297,13.971799136395065,-48.148200303533322));
#297=CARTESIAN_POINT('',(9.241106204100975,14.949533360421151,-45.186450687047433));
#298=CARTESIAN_POINT('',(7.903326957431450,15.674561480173962,-41.860168556797554));
#299=CARTESIAN_POINT('',(6.626053152660237,16.197080589356876,-38.180252665288286));
#300=CARTESIAN_POINT('',(5.936943893873178,16.478987847366923,-36.194880301959422));
#301=CARTESIAN_POINT('',(5.265720782345303,16.701986093789198,-34.106517830447658));
#302=CARTESIAN_POINT('',(4.630298936231986,16.876324592787640,-31.916543766063363));
#303=CARTESIAN_POINT('',(4.074728595147324,17.028754509928824,-30.001776992842338));
#304=CARTESIAN_POINT('',(3.545087347914522,17.144414793847837,-28.004638678415748));
#305=CARTESIAN_POINT('',(3.054138286034350,17.231431726057448,-25.921234980755813));
#306=CARTESIAN_POINT('',(1.955484419497318,17.426159644795408,-21.258960000077039));
#307=CARTESIAN_POINT('',(1.053926101109283,17.476340385269843,-16.176580069578566));
#308=CARTESIAN_POINT('',(0.521966031173734,17.492214024025110,-10.715993974346310));
#309=CARTESIAN_POINT('',(0.196531682103589,17.501924954577323,-7.375400606767604));
#310=CARTESIAN_POINT('',(0.009525541404228,17.499999810793415,-3.893220499552438));
#311=CARTESIAN_POINT('',(0.000354188793434,17.499999996415720,-0.279144294598442));
#312=CARTESIAN_POINT('',(0.000118063275178,17.500000001194749,-0.186096338300729));
#313=CARTESIAN_POINT('',(-1.086557E-015,17.500000000000000,-0.093048255902207));
#314=CARTESIAN_POINT('',(-1.071531E-015,17.500000000000000,-5.514117E-015));
#315=B_SPLINE_CURVE_WITH_KNOTS('',3,(#230,#231,#232,#233,#234,#235,#236,#237,#238,#239,#240,#241,#242,#243,#244,#245,#246,#247,#248,#249,#250,#251,#252,#253,#254,#255,#256,#257,#258,#259,#260,#261,#262,#263,#264,#265,#266,#267,#268,#269,#270,#271,#272,#273,#274,#275,#276,#277,#278,#279,#280,#281,#282,#283,#284,#285,#286,#287,#288,#289,#290,#291,#292,#293,#294,#295,#296,#297,#298,#299,#300,#301,#302,#303,#304,#305,#306,#307,#308,#309,#310,#311,#312,#313,#314),.UNSPECIFIED.,.F.,.U.,(4,3,3,3,3,3,3,3,3,3,3,3,3,3,3,3,3,3,3,3,3,3,3,3,3,3,3,3,4),(-25.501697272111258,-25.458576914126304,-23.867415856993411,-22.751940701915373,-22.231002217075350,-19.452126939940932,-18.796955599307669,-16.447336149394211,-16.102039223083199,-15.095661771640499,-14.564138219678792,-14.249156852638437,-13.206352680377929,-12.677639922869192,-11.927625452690217,-11.457637176421249,-10.979677967374032,-10.140525924724804,-9.689282729287639,-8.553505338843500,-7.544476999575529,-6.803724287440205,-6.233218703773897,-4.554298101323020,-3.648494093133497,-2.856519682961954,-1.084226352568092,0.0,0.027914476770660),.UNSPECIFIED.);
#316=EDGE_CURVE('',#227,#229,#315,.T.);
#317=ORIENTED_EDGE('',*,*,#316,.F.);
#318=CARTESIAN_POINT('',(0.0,0.0,0.0));
#319=DIRECTION('',(0.0,0.0,-1.0));
#320=DIRECTION('',(-1.0,0.0,0.0));
#321=AXIS2_PLACEMENT_3D('',#318,#319,#320);
#322=CIRCLE('',#321,17.500000000000000);
#323=EDGE_CURVE('',#227,#229,#322,.T.);
#324=ORIENTED_EDGE('',*,*,#323,.T.);
#325=EDGE_LOOP('',(#317,#324));
#326=FACE_BOUND('',#325,.T.);
#327=ADVANCED_FACE('',(#225,#326),#214,.T.);
#328=CARTESIAN_POINT('',(0.0,0.0,-110.0));
#329=DIRECTION('',(0.0,0.0,-1.0));
#330=DIRECTION('',(-1.0,0.0,0.0));
#331=AXIS2_PLACEMENT_3D('',#328,#329,#330);
#332=PLANE('',#331);
#333=ORIENTED_EDGE('',*,*,#222,.T.);
#334=EDGE_LOOP('',(#333));
#335=FACE_OUTER_BOUND('',#334,.T.);
#336=ORIENTED_EDGE('',*,*,#178,.T.);
#337=EDGE_LOOP('',(#336));
#338=FACE_BOUND('',#337,.T.);
#339=ADVANCED_FACE('',(#335,#338),#332,.T.);
#340=CARTESIAN_POINT('',(55.0,0.0,-8.881784E-015));
#341=DIRECTION('',(0.0,1.0,0.0));
#342=DIRECTION('',(0.0,0.0,1.0));
#343=AXIS2_PLACEMENT_3D('',#340,#341,#342);
#344=TOROIDAL_SURFACE('',#343,55.0,17.500000000000000);
#345=CARTESIAN_POINT('',(54.999999999999993,2.143132E-015,-37.500000000000007));
#346=VERTEX_POINT('',#345);
#347=CARTESIAN_POINT('',(54.999999999999986,0.0,-55.000000000000007));
#348=DIRECTION('',(1.0,0.0,0.0));
#349=DIRECTION('',(0.0,0.0,-1.0));
#350=AXIS2_PLACEMENT_3D('',#347,#348,#349);
#351=CIRCLE('',#350,17.500000000000000);
#352=EDGE_CURVE('',#346,#346,#351,.T.);
#353=ORIENTED_EDGE('',*,*,#352,.F.);
#354=EDGE_LOOP('',(#353));
#355=FACE_OUTER_BOUND('',#354,.T.);
#356=ORIENTED_EDGE('',*,*,#316,.T.);
#357=CARTESIAN_POINT('',(0.0,0.0,0.0));
#358=DIRECTION('',(0.0,0.0,-1.0));
#359=DIRECTION('',(-1.0,0.0,0.0));
#360=AXIS2_PLACEMENT_3D('',#357,#358,#359);
#361=CIRCLE('',#360,17.500000000000000);
#362=EDGE_CURVE('',#229,#227,#361,.T.);
#363=ORIENTED_EDGE('',*,*,#362,.T.);
#364=EDGE_LOOP('',(#356,#363));
#365=FACE_BOUND('',#364,.T.);
#366=ADVANCED_FACE('',(#355,#365),#344,.T.);
#367=CARTESIAN_POINT('',(54.999999999999986,0.0,-55.000000000000007));
#368=DIRECTION('',(1.0,0.0,0.0));
#369=DIRECTION('',(0.0,0.0,-1.0));
#370=AXIS2_PLACEMENT_3D('',#367,#368,#369);
#371=PLANE('',#370);
#372=ORIENTED_EDGE('',*,*,#352,.T.);
#373=EDGE_LOOP('',(#372));
#374=FACE_OUTER_BOUND('',#373,.T.);
#375=ORIENTED_EDGE('',*,*,#195,.T.);
#376=EDGE_LOOP('',(#375));
#377=FACE_BOUND('',#376,.T.);
#378=ADVANCED_FACE('',(#374,#377),#371,.T.);
#379=CARTESIAN_POINT('',(0.0,0.0,0.0));
#380=DIRECTION('',(0.0,0.0,-1.0));
#381=DIRECTION('',(-1.0,0.0,0.0));
#382=AXIS2_PLACEMENT_3D('',#379,#380,#381);
#383=PLANE('',#382);
#384=ORIENTED_EDGE('',*,*,#362,.F.);
#385=ORIENTED_EDGE('',*,*,#323,.F.);
#386=EDGE_LOOP('',(#384,#385));
#387=FACE_OUTER_BOUND('',#386,.T.);
#388=ORIENTED_EDGE('',*,*,#205,.T.);
#389=ORIENTED_EDGE('',*,*,#167,.T.);
#390=EDGE_LOOP('',(#388,#389));
#391=FACE_BOUND('',#390,.T.);
#392=ADVANCED_FACE('',(#387,#391),#383,.F.);
#393=CLOSED_SHELL('',(#182,#209,#327,#339,#366,#378,#392));
#394=MANIFOLD_SOLID_BREP('',#393);
#395=COLOUR_RGB('Metall - Stahl',0.639216005802155,0.639216005802155,0.686275005340576);
#396=FILL_AREA_STYLE_COLOUR('Metall - Stahl',#395);
#397=FILL_AREA_STYLE('Metall - Stahl',(#396));
#398=SURFACE_STYLE_FILL_AREA(#397);
#399=SURFACE_SIDE_STYLE('Metall - Stahl',(#398));
#400=SURFACE_STYLE_USAGE(.BOTH.,#399);
#401=PRESENTATION_STYLE_ASSIGNMENT((#400));
#402=STYLED_ITEM('',(#401),#394);
#403=MECHANICAL_DESIGN_GEOMETRIC_PRESENTATION_REPRESENTATION('',(#402),#36);
#404=ADVANCED_BREP_SHAPE_REPRESENTATION('ABSR',(#394),#36);
#405=SHAPE_REPRESENTATION_RELATIONSHIP('SRR','None',#404,#41);
ENDSEC;
END-ISO-10303-21;
