ISO-10303-21;
HEADER;
/****************************************************************
 * Generated by software with PDE/Lib inside                    *
 * PDElib Version v51a, created Thu 12/14/2006                  *
 * International Technegroup Inc. (www.iti-oh.com)              *
 ****************************************************************/
FILE_DESCRIPTION((''),'2;1');
FILE_NAME('T:\\Arbeitspl\S\dtze\\Aushilfe\\KPeters\\3D\\Steps 08_10\\70801\\70801100X.stp','2010-09-10T11:21:47',('thilbrands'),(''),'Autodesk Inventor 2008','Autodesk Inventor 2008','');
FILE_SCHEMA(('AUTOMOTIVE_DESIGN { 1 0 10303 214 1 1 1 1 }'));
ENDSEC;
DATA;
#5=APPLICATION_CONTEXT('automotive design');
#6=APPLICATION_PROTOCOL_DEFINITION('International Standard','automotive_design',2001,#5);
#7=PRODUCT_CONTEXT('',#5,'mechanical');
#8=PRODUCT('70801100X','70801100X',$,(#7));
#9=PRODUCT_RELATED_PRODUCT_CATEGORY('part',$,(#8));
#10=PRODUCT_DEFINITION_FORMATION('',$,#8);
#11=PRODUCT_DEFINITION_CONTEXT('part definition',#5,'design');
#12=PRODUCT_DEFINITION('',$,#10,#11);
#18=(NAMED_UNIT(*)PLANE_ANGLE_UNIT()SI_UNIT($,.RADIAN.));
#19=DIMENSIONAL_EXPONENTS(0.0,0.0,0.0,0.0,0.0,0.0,0.0);
#20=PLANE_ANGLE_MEASURE_WITH_UNIT(PLANE_ANGLE_MEASURE(0.017453292500000),#18);
#24=(CONVERSION_BASED_UNIT('DEGREE',#20)NAMED_UNIT(#19)PLANE_ANGLE_UNIT());
#28=(NAMED_UNIT(*)SI_UNIT($,.STERADIAN.)SOLID_ANGLE_UNIT());
#32=(LENGTH_UNIT()NAMED_UNIT(*)SI_UNIT(.MILLI.,.METRE.));
#34=UNCERTAINTY_MEASURE_WITH_UNIT(LENGTH_MEASURE(0.010000000000000),#32,'DISTANCE_ACCURACY_VALUE','');
#36=(GEOMETRIC_REPRESENTATION_CONTEXT(3)GLOBAL_UNCERTAINTY_ASSIGNED_CONTEXT((#34))GLOBAL_UNIT_ASSIGNED_CONTEXT((#24,#28,#32))REPRESENTATION_CONTEXT('None','None'));
#37=AXIS2_PLACEMENT_3D('',#38,#39,#40);
#38=CARTESIAN_POINT('',(0.0,0.0,0.0));
#39=DIRECTION('',(0.0,0.0,1.0));
#40=DIRECTION('',(1.0,0.0,0.0));
#41=SHAPE_REPRESENTATION('',(#37),#36);
#42=PRODUCT_DEFINITION_SHAPE('','',#12);
#43=SHAPE_DEFINITION_REPRESENTATION(#42,#41);
#49=(NAMED_UNIT(*)PLANE_ANGLE_UNIT()SI_UNIT($,.RADIAN.));
#50=DIMENSIONAL_EXPONENTS(0.0,0.0,0.0,0.0,0.0,0.0,0.0);
#51=PLANE_ANGLE_MEASURE_WITH_UNIT(PLANE_ANGLE_MEASURE(0.017453292500000),#49);
#55=(CONVERSION_BASED_UNIT('DEGREE',#51)NAMED_UNIT(#50)PLANE_ANGLE_UNIT());
#59=(NAMED_UNIT(*)SI_UNIT($,.STERADIAN.)SOLID_ANGLE_UNIT());
#63=(LENGTH_UNIT()NAMED_UNIT(*)SI_UNIT(.MILLI.,.METRE.));
#65=UNCERTAINTY_MEASURE_WITH_UNIT(LENGTH_MEASURE(0.000001000000000),#63,'DISTANCE_ACCURACY_VALUE','');
#67=(GEOMETRIC_REPRESENTATION_CONTEXT(3)GLOBAL_UNCERTAINTY_ASSIGNED_CONTEXT((#65))GLOBAL_UNIT_ASSIGNED_CONTEXT((#55,#59,#63))REPRESENTATION_CONTEXT('','3D'));
#68=CARTESIAN_POINT('',(-5.000000000000009,29.0,0.0));
#69=DIRECTION('',(-1.0,0.0,0.0));
#70=DIRECTION('',(0.0,0.0,1.0));
#71=AXIS2_PLACEMENT_3D('',#68,#69,#70);
#72=PLANE('',#71);
#73=CARTESIAN_POINT('',(-5.000000000000018,58.0,0.0));
#74=VERTEX_POINT('',#73);
#75=CARTESIAN_POINT('',(-5.000000000000018,0.0,0.0));
#76=DIRECTION('',(1.0,0.0,0.0));
#77=DIRECTION('',(0.0,1.0,0.0));
#78=AXIS2_PLACEMENT_3D('',#75,#76,#77);
#79=CIRCLE('',#78,58.0);
#80=EDGE_CURVE('',#74,#74,#79,.T.);
#81=ORIENTED_EDGE('',*,*,#80,.F.);
#82=EDGE_LOOP('',(#81));
#83=FACE_OUTER_BOUND('',#82,.T.);
#84=CARTESIAN_POINT('',(-5.000000000000020,29.0,-5.327214E-015));
#85=VERTEX_POINT('',#84);
#86=CARTESIAN_POINT('',(-5.000000000000009,17.499999999999996,-3.214698E-015));
#87=DIRECTION('',(1.0,0.0,0.0));
#88=DIRECTION('',(0.0,0.0,-1.0));
#89=AXIS2_PLACEMENT_3D('',#86,#87,#88);
#90=CIRCLE('',#89,11.500000000000007);
#91=EDGE_CURVE('',#85,#85,#90,.T.);
#92=ORIENTED_EDGE('',*,*,#91,.T.);
#93=EDGE_LOOP('',(#92));
#94=FACE_BOUND('',#93,.T.);
#95=CARTESIAN_POINT('',(-5.000000000000020,-3.551476E-015,-29.0));
#96=VERTEX_POINT('',#95);
#97=CARTESIAN_POINT('',(-5.000000000000009,-2.143132E-015,-17.499999999999996));
#98=DIRECTION('',(1.0,0.0,0.0));
#99=DIRECTION('',(0.0,0.0,-1.0));
#100=AXIS2_PLACEMENT_3D('',#97,#98,#99);
#101=CIRCLE('',#100,11.500000000000007);
#102=EDGE_CURVE('',#96,#96,#101,.T.);
#103=ORIENTED_EDGE('',*,*,#102,.T.);
#104=EDGE_LOOP('',(#103));
#105=FACE_BOUND('',#104,.T.);
#106=CARTESIAN_POINT('',(-5.000000000000021,0.0,5.999999999999996));
#107=VERTEX_POINT('',#106);
#108=CARTESIAN_POINT('',(-5.000000000000009,0.0,17.499999999999996));
#109=DIRECTION('',(1.0,0.0,0.0));
#110=DIRECTION('',(0.0,0.0,-1.0));
#111=AXIS2_PLACEMENT_3D('',#108,#109,#110);
#112=CIRCLE('',#111,11.500000000000007);
#113=EDGE_CURVE('',#107,#107,#112,.T.);
#114=ORIENTED_EDGE('',*,*,#113,.T.);
#115=EDGE_LOOP('',(#114));
#116=FACE_BOUND('',#115,.T.);
#117=CARTESIAN_POINT('',(-5.000000000000020,-29.0,1.775738E-015));
#118=VERTEX_POINT('',#117);
#119=CARTESIAN_POINT('',(-5.000000000000009,-17.499999999999996,1.071566E-015));
#120=DIRECTION('',(1.0,0.0,0.0));
#121=DIRECTION('',(0.0,0.0,-1.0));
#122=AXIS2_PLACEMENT_3D('',#119,#120,#121);
#123=CIRCLE('',#122,11.500000000000007);
#124=EDGE_CURVE('',#118,#118,#123,.T.);
#125=ORIENTED_EDGE('',*,*,#124,.T.);
#126=EDGE_LOOP('',(#125));
#127=FACE_BOUND('',#126,.T.);
#128=ADVANCED_FACE('',(#83,#94,#105,#116,#127),#72,.T.);
#129=CARTESIAN_POINT('',(3.020833333333312,17.499999999999996,-3.214698E-015));
#130=DIRECTION('',(0.0,1.0,0.0));
#131=DIRECTION('',(1.0,0.0,0.0));
#132=AXIS2_PLACEMENT_3D('',#129,#130,#131);
#133=SPHERICAL_SURFACE('',#132,14.020833333333334);
#134=ORIENTED_EDGE('',*,*,#91,.F.);
#135=EDGE_LOOP('',(#134));
#136=FACE_OUTER_BOUND('',#135,.T.);
#137=ADVANCED_FACE('',(#136),#133,.T.);
#138=CARTESIAN_POINT('',(3.020833333333312,-2.143132E-015,-17.499999999999996));
#139=DIRECTION('',(0.0,0.0,-1.0));
#140=DIRECTION('',(1.0,0.0,0.0));
#141=AXIS2_PLACEMENT_3D('',#138,#139,#140);
#142=SPHERICAL_SURFACE('',#141,14.020833333333334);
#143=ORIENTED_EDGE('',*,*,#102,.F.);
#144=EDGE_LOOP('',(#143));
#145=FACE_OUTER_BOUND('',#144,.T.);
#146=ADVANCED_FACE('',(#145),#142,.T.);
#147=CARTESIAN_POINT('',(3.020833333333312,-17.499999999999996,1.071566E-015));
#148=DIRECTION('',(0.0,-1.0,0.0));
#149=DIRECTION('',(1.0,0.0,0.0));
#150=AXIS2_PLACEMENT_3D('',#147,#148,#149);
#151=SPHERICAL_SURFACE('',#150,14.020833333333334);
#152=ORIENTED_EDGE('',*,*,#124,.F.);
#153=EDGE_LOOP('',(#152));
#154=FACE_OUTER_BOUND('',#153,.T.);
#155=ADVANCED_FACE('',(#154),#151,.T.);
#156=CARTESIAN_POINT('',(3.020833333333312,0.0,17.499999999999996));
#157=DIRECTION('',(0.0,0.0,1.0));
#158=DIRECTION('',(1.0,0.0,0.0));
#159=AXIS2_PLACEMENT_3D('',#156,#157,#158);
#160=SPHERICAL_SURFACE('',#159,14.020833333333334);
#161=ORIENTED_EDGE('',*,*,#113,.F.);
#162=EDGE_LOOP('',(#161));
#163=FACE_OUTER_BOUND('',#162,.T.);
#164=ADVANCED_FACE('',(#163),#160,.T.);
#165=CARTESIAN_POINT('',(-5.551115E-015,30.0,0.0));
#166=DIRECTION('',(1.0,0.0,0.0));
#167=DIRECTION('',(0.0,0.0,-1.0));
#168=AXIS2_PLACEMENT_3D('',#165,#166,#167);
#169=PLANE('',#168);
#170=CARTESIAN_POINT('',(-1.110223E-014,60.0,0.0));
#171=VERTEX_POINT('',#170);
#172=CARTESIAN_POINT('',(-1.110223E-014,0.0,0.0));
#173=DIRECTION('',(1.0,0.0,0.0));
#174=DIRECTION('',(0.0,1.0,0.0));
#175=AXIS2_PLACEMENT_3D('',#172,#173,#174);
#176=CIRCLE('',#175,60.0);
#177=EDGE_CURVE('',#171,#171,#176,.T.);
#178=ORIENTED_EDGE('',*,*,#177,.T.);
#179=EDGE_LOOP('',(#178));
#180=FACE_OUTER_BOUND('',#179,.T.);
#181=ADVANCED_FACE('',(#180),#169,.T.);
#182=CARTESIAN_POINT('',(-4.422649730810392,0.0,0.0));
#183=DIRECTION('',(1.0,0.0,0.0));
#184=DIRECTION('',(0.0,1.0,0.0));
#185=AXIS2_PLACEMENT_3D('',#182,#183,#184);
#186=CONICAL_SURFACE('',#185,59.0,59.999999999999993);
#187=CARTESIAN_POINT('',(-3.845299461620765,60.0,0.0));
#188=VERTEX_POINT('',#187);
#189=CARTESIAN_POINT('',(-3.845299461620765,0.0,0.0));
#190=DIRECTION('',(1.0,0.0,0.0));
#191=DIRECTION('',(0.0,1.0,0.0));
#192=AXIS2_PLACEMENT_3D('',#189,#190,#191);
#193=CIRCLE('',#192,60.0);
#194=EDGE_CURVE('',#188,#188,#193,.T.);
#195=ORIENTED_EDGE('',*,*,#194,.F.);
#196=EDGE_LOOP('',(#195));
#197=FACE_OUTER_BOUND('',#196,.T.);
#198=ORIENTED_EDGE('',*,*,#80,.T.);
#199=EDGE_LOOP('',(#198));
#200=FACE_BOUND('',#199,.T.);
#201=ADVANCED_FACE('',(#197,#200),#186,.T.);
#202=CARTESIAN_POINT('',(-1.922649730810388,0.0,0.0));
#203=DIRECTION('',(1.0,0.0,0.0));
#204=DIRECTION('',(0.0,1.0,0.0));
#205=AXIS2_PLACEMENT_3D('',#202,#203,#204);
#206=CYLINDRICAL_SURFACE('',#205,60.0);
#207=ORIENTED_EDGE('',*,*,#177,.F.);
#208=EDGE_LOOP('',(#207));
#209=FACE_OUTER_BOUND('',#208,.T.);
#210=ORIENTED_EDGE('',*,*,#194,.T.);
#211=EDGE_LOOP('',(#210));
#212=FACE_BOUND('',#211,.T.);
#213=ADVANCED_FACE('',(#209,#212),#206,.T.);
#214=CLOSED_SHELL('',(#128,#137,#146,#155,#164,#181,#201,#213));
#215=MANIFOLD_SOLID_BREP('',#214);
#216=COLOUR_RGB('Metall - Stahl',0.639216005802155,0.639216005802155,0.686275005340576);
#217=FILL_AREA_STYLE_COLOUR('Metall - Stahl',#216);
#218=FILL_AREA_STYLE('Metall - Stahl',(#217));
#219=SURFACE_STYLE_FILL_AREA(#218);
#220=SURFACE_SIDE_STYLE('Metall - Stahl',(#219));
#221=SURFACE_STYLE_USAGE(.BOTH.,#220);
#222=PRESENTATION_STYLE_ASSIGNMENT((#221));
#223=STYLED_ITEM('',(#222),#215);
#224=MECHANICAL_DESIGN_GEOMETRIC_PRESENTATION_REPRESENTATION('',(#223),#36);
#225=ADVANCED_BREP_SHAPE_REPRESENTATION('ABSR',(#215),#36);
#226=SHAPE_REPRESENTATION_RELATIONSHIP('SRR','None',#225,#41);
ENDSEC;
END-ISO-10303-21;
