ISO-10303-21;
HEADER;
/****************************************************************
 * Generated by software with PDE/Lib inside                    *
 * PDElib Version v51a, created Thu 12/14/2006                  *
 * International Technegroup Inc. (www.iti-oh.com)              *
 ****************************************************************/
FILE_DESCRIPTION((''),'2;1');
FILE_NAME('T:\\Arbeitspl\S\dtze\\Aushilfe\\KPeters\\3D\\Steps 08_10\\47201\\47201112X.stp','2010-08-17T10:22:53',('thilbrands'),(''),'Autodesk Inventor 2008','Autodesk Inventor 2008','');
FILE_SCHEMA(('AUTOMOTIVE_DESIGN { 1 0 10303 214 1 1 1 1 }'));
ENDSEC;
DATA;
#5=APPLICATION_CONTEXT('automotive design');
#6=APPLICATION_PROTOCOL_DEFINITION('International Standard','automotive_design',2001,#5);
#7=PRODUCT_CONTEXT('',#5,'mechanical');
#8=PRODUCT('472011001','472011001',$,(#7));
#9=PRODUCT_RELATED_PRODUCT_CATEGORY('part',$,(#8));
#10=PRODUCT_DEFINITION_FORMATION('',$,#8);
#11=PRODUCT_DEFINITION_CONTEXT('part definition',#5,'design');
#12=PRODUCT_DEFINITION('',$,#10,#11);
#18=(NAMED_UNIT(*)PLANE_ANGLE_UNIT()SI_UNIT($,.RADIAN.));
#19=DIMENSIONAL_EXPONENTS(0.0,0.0,0.0,0.0,0.0,0.0,0.0);
#20=PLANE_ANGLE_MEASURE_WITH_UNIT(PLANE_ANGLE_MEASURE(0.017453292500000),#18);
#24=(CONVERSION_BASED_UNIT('DEGREE',#20)NAMED_UNIT(#19)PLANE_ANGLE_UNIT());
#28=(NAMED_UNIT(*)SI_UNIT($,.STERADIAN.)SOLID_ANGLE_UNIT());
#32=(LENGTH_UNIT()NAMED_UNIT(*)SI_UNIT(.MILLI.,.METRE.));
#34=UNCERTAINTY_MEASURE_WITH_UNIT(LENGTH_MEASURE(0.010000000000000),#32,'DISTANCE_ACCURACY_VALUE','');
#36=(GEOMETRIC_REPRESENTATION_CONTEXT(3)GLOBAL_UNCERTAINTY_ASSIGNED_CONTEXT((#34))GLOBAL_UNIT_ASSIGNED_CONTEXT((#24,#28,#32))REPRESENTATION_CONTEXT('None','None'));
#37=AXIS2_PLACEMENT_3D('',#38,#39,#40);
#38=CARTESIAN_POINT('',(0.0,0.0,0.0));
#39=DIRECTION('',(0.0,0.0,1.0));
#40=DIRECTION('',(1.0,0.0,0.0));
#41=SHAPE_REPRESENTATION('',(#37),#36);
#42=PRODUCT_DEFINITION_SHAPE('','',#12);
#43=SHAPE_DEFINITION_REPRESENTATION(#42,#41);
#49=(NAMED_UNIT(*)PLANE_ANGLE_UNIT()SI_UNIT($,.RADIAN.));
#50=DIMENSIONAL_EXPONENTS(0.0,0.0,0.0,0.0,0.0,0.0,0.0);
#51=PLANE_ANGLE_MEASURE_WITH_UNIT(PLANE_ANGLE_MEASURE(0.017453292500000),#49);
#55=(CONVERSION_BASED_UNIT('DEGREE',#51)NAMED_UNIT(#50)PLANE_ANGLE_UNIT());
#59=(NAMED_UNIT(*)SI_UNIT($,.STERADIAN.)SOLID_ANGLE_UNIT());
#63=(LENGTH_UNIT()NAMED_UNIT(*)SI_UNIT(.MILLI.,.METRE.));
#65=UNCERTAINTY_MEASURE_WITH_UNIT(LENGTH_MEASURE(0.000001000000000),#63,'DISTANCE_ACCURACY_VALUE','');
#67=(GEOMETRIC_REPRESENTATION_CONTEXT(3)GLOBAL_UNCERTAINTY_ASSIGNED_CONTEXT((#65))GLOBAL_UNIT_ASSIGNED_CONTEXT((#55,#59,#63))REPRESENTATION_CONTEXT('','3D'));
#68=CARTESIAN_POINT('',(0.0,0.0,-90.0));
#69=DIRECTION('',(0.0,0.0,1.0));
#70=DIRECTION('',(1.0,0.0,0.0));
#71=AXIS2_PLACEMENT_3D('',#68,#69,#70);
#72=CYLINDRICAL_SURFACE('',#71,17.550000000000001);
#73=CARTESIAN_POINT('',(-1.074592E-015,17.550000000000001,3.865587E-015));
#74=VERTEX_POINT('',#73);
#75=CARTESIAN_POINT('',(-1.074592E-015,-17.550000000000001,3.865587E-015));
#76=VERTEX_POINT('',#75);
#77=CARTESIAN_POINT('',(-1.074592E-015,17.550000000000001,3.865587E-015));
#78=CARTESIAN_POINT('',(-1.090498E-015,17.550000000000001,-0.080590038739585));
#79=CARTESIAN_POINT('',(0.000108245705260,17.550000001001454,-0.161179857469951));
#80=CARTESIAN_POINT('',(0.000324736304943,17.549999996995624,-0.241769605427547));
#81=CARTESIAN_POINT('',(0.012007455824050,17.549999780824500,-4.590722506300184));
#82=CARTESIAN_POINT('',(0.338482017588644,17.555237431127981,-8.722300788533552));
#83=CARTESIAN_POINT('',(0.884077137675200,17.527718266067605,-12.614827972728598));
#84=CARTESIAN_POINT('',(1.455956263218860,17.498873367220412,-16.694877372545875));
#85=CARTESIAN_POINT('',(2.268327057020431,17.429208178808867,-20.512445200078229));
#86=CARTESIAN_POINT('',(3.211352862728227,17.253686933262909,-24.042535542057173));
#87=CARTESIAN_POINT('',(3.772558448653454,17.149232205881390,-26.143333215618544));
#88=CARTESIAN_POINT('',(4.378020563166988,17.008238596954101,-28.137284347273294));
#89=CARTESIAN_POINT('',(5.017080876373110,16.817591964366695,-30.051198940261269));
#90=CARTESIAN_POINT('',(5.949931450405302,16.539300828191724,-32.844982703424733));
#91=CARTESIAN_POINT('',(6.951952760418330,16.155080654649449,-35.457525113505163));
#92=CARTESIAN_POINT('',(7.973042465364034,15.634356201823659,-37.883342563262907));
#93=CARTESIAN_POINT('',(8.601214172805518,15.314007884674087,-39.375699093717493));
#94=CARTESIAN_POINT('',(9.236696101813317,14.942223846035890,-40.797384337579793));
#95=CARTESIAN_POINT('',(9.868686742766981,14.512460920641104,-42.146928876230795));
#96=CARTESIAN_POINT('',(10.310260267236563,14.212184433371336,-43.089859197891201));
#97=CARTESIAN_POINT('',(10.751949128601034,13.881796060151039,-44.000946803636580));
#98=CARTESIAN_POINT('',(11.178511528488427,13.529352534672581,-44.856795194573557));
#99=CARTESIAN_POINT('',(12.324515645206029,12.582476459295561,-47.156120638069829));
#100=CARTESIAN_POINT('',(13.373996899370223,11.467891684625412,-49.090278038868846));
#101=CARTESIAN_POINT('',(14.270782225821936,10.215051378390845,-50.682746577587416));
#102=CARTESIAN_POINT('',(14.761389286795518,9.529656242697710,-51.553943157670709));
#103=CARTESIAN_POINT('',(15.205851395235262,8.803519171275958,-52.321017627322476));
#104=CARTESIAN_POINT('',(15.594394397284837,8.050923138493580,-52.981043699716530));
#105=CARTESIAN_POINT('',(15.929715397028568,7.401416513011870,-53.550660450718688));
#106=CARTESIAN_POINT('',(16.224446810649589,6.730909413842460,-54.042333673182029));
#107=CARTESIAN_POINT('',(16.476419443718903,6.044013758641006,-54.458750443518291));
#108=CARTESIAN_POINT('',(16.677810771294354,5.495006407240367,-54.791575183971879));
#109=CARTESIAN_POINT('',(16.851532364929863,4.938584887641325,-55.075718290776244));
#110=CARTESIAN_POINT('',(17.000728387735577,4.356344142333310,-55.318451802200727));
#111=CARTESIAN_POINT('',(17.183000057693089,3.645024959899089,-55.614997525404128));
#112=CARTESIAN_POINT('',(17.326108906575119,2.900829146496705,-55.845524703548499));
#113=CARTESIAN_POINT('',(17.420522768972234,2.127883092587570,-55.997268669239595));
#114=CARTESIAN_POINT('',(17.482429256808206,1.621067946280717,-56.096766091839747));
#115=CARTESIAN_POINT('',(17.522828019010845,1.104416188773726,-56.161461984449339));
#116=CARTESIAN_POINT('',(17.540138910295738,0.588240603434928,-56.189189385977386));
#117=CARTESIAN_POINT('',(17.558720506705150,0.034175174607080,-56.218952116052726));
#118=CARTESIAN_POINT('',(17.551073841051700,-0.522110594718641,-56.206728240220031));
#119=CARTESIAN_POINT('',(17.516854901491744,-1.078097565197436,-56.151882268259854));
#120=CARTESIAN_POINT('',(17.483287110105778,-1.623504725043712,-56.098079953845819));
#121=CARTESIAN_POINT('',(17.424741135764865,-2.158897322884041,-56.004199524535849));
#122=CARTESIAN_POINT('',(17.343891279650020,-2.681778380045587,-55.873969165766312));
#123=CARTESIAN_POINT('',(17.258386888802541,-3.234761754744190,-55.736241431524945));
#124=CARTESIAN_POINT('',(17.147906180739760,-3.774038584718661,-55.557801859797053));
#125=CARTESIAN_POINT('',(17.015684190119455,-4.297556461772062,-55.342778699858428));
#126=CARTESIAN_POINT('',(16.882918882840578,-4.823225539108632,-55.126871982924293));
#127=CARTESIAN_POINT('',(16.726070074086223,-5.341724478908809,-54.870585915962323));
#128=CARTESIAN_POINT('',(16.545595476603619,-5.851988578645196,-54.572952877672407));
#129=CARTESIAN_POINT('',(16.269632838452974,-6.632230391515241,-54.117843961553639));
#130=CARTESIAN_POINT('',(15.938524092414257,-7.392558121295172,-53.566393226788499));
#131=CARTESIAN_POINT('',(15.555615261923297,-8.125597444066436,-52.915127772180561));
#132=CARTESIAN_POINT('',(15.335439074245620,-8.547101965909564,-52.540643995512653));
#133=CARTESIAN_POINT('',(15.096246099441698,-8.962002255019593,-52.129707082600341));
#134=CARTESIAN_POINT('',(14.851123255716098,-9.351290715378735,-51.703019119089156));
#135=CARTESIAN_POINT('',(14.150776577737242,-10.463536623774074,-50.483918144097437));
#136=CARTESIAN_POINT('',(13.388861436284234,-11.398615324381296,-49.112459258141349));
#137=CARTESIAN_POINT('',(12.632373866325326,-12.183005807327721,-47.684665207365775));
#138=CARTESIAN_POINT('',(12.438895778265525,-12.383620301153471,-47.319494814543297));
#139=CARTESIAN_POINT('',(12.244688355633652,-12.575548105153477,-46.948809260748341));
#140=CARTESIAN_POINT('',(12.046459336404570,-12.762653229495470,-46.565681360341159));
#141=CARTESIAN_POINT('',(11.393057469384994,-13.379388549326244,-45.302816385238579));
#142=CARTESIAN_POINT('',(10.707249297655032,-13.931645275816294,-43.926440442036260));
#143=CARTESIAN_POINT('',(10.003592730935322,-14.419800015034120,-42.434027520002843));
#144=CARTESIAN_POINT('',(9.365791292215384,-14.862268414700326,-41.081289332289316));
#145=CARTESIAN_POINT('',(8.713332008605134,-15.251975529968508,-39.633190559899148));
#146=CARTESIAN_POINT('',(8.059089689583601,-15.590175540231975,-38.087217594949735));
#147=CARTESIAN_POINT('',(7.701407077053800,-15.775073795376276,-37.242014475361643));
#148=CARTESIAN_POINT('',(7.346122111021487,-15.943066945817604,-36.374206705304545));
#149=CARTESIAN_POINT('',(6.997643079408150,-16.094579563729251,-35.490502311089756));
#150=CARTESIAN_POINT('',(5.029308102458007,-16.950377354213483,-30.499021875768932));
#151=CARTESIAN_POINT('',(3.249233705166715,-17.294205103524327,-24.937094316437769));
#152=CARTESIAN_POINT('',(1.974979708461759,-17.438519293539926,-18.854610776229713));
#153=CARTESIAN_POINT('',(1.776833183066301,-17.460960153361277,-17.908784447739603));
#154=CARTESIAN_POINT('',(1.592066722795969,-17.478465848380285,-16.955283915866648));
#155=CARTESIAN_POINT('',(1.422494605044810,-17.492255689264848,-16.001532080024901));
#156=CARTESIAN_POINT('',(0.765964173479941,-17.545645658719842,-12.308901990272505));
#157=CARTESIAN_POINT('',(0.330004060632735,-17.548052927632352,-8.578687111270675));
#158=CARTESIAN_POINT('',(0.128603830182862,-17.549528798656169,-4.811308494884249));
#159=CARTESIAN_POINT('',(0.047497374150553,-17.550123150847501,-3.294136804343124));
#160=CARTESIAN_POINT('',(0.004432599914852,-17.549999920985794,-1.770943128235231));
#161=CARTESIAN_POINT('',(0.000324736304947,-17.549999996995620,-0.241769605427546));
#162=CARTESIAN_POINT('',(0.000108245705276,-17.550000001001454,-0.161179857473699));
#163=CARTESIAN_POINT('',(-1.090498E-015,-17.550000000000001,-0.080590038735837));
#164=CARTESIAN_POINT('',(-1.074592E-015,-17.550000000000001,3.865587E-015));
#165=B_SPLINE_CURVE_WITH_KNOTS('',3,(#77,#78,#79,#80,#81,#82,#83,#84,#85,#86,#87,#88,#89,#90,#91,#92,#93,#94,#95,#96,#97,#98,#99,#100,#101,#102,#103,#104,#105,#106,#107,#108,#109,#110,#111,#112,#113,#114,#115,#116,#117,#118,#119,#120,#121,#122,#123,#124,#125,#126,#127,#128,#129,#130,#131,#132,#133,#134,#135,#136,#137,#138,#139,#140,#141,#142,#143,#144,#145,#146,#147,#148,#149,#150,#151,#152,#153,#154,#155,#156,#157,#158,#159,#160,#161,#162,#163,#164),.UNSPECIFIED.,.F.,.U.,(4,3,3,3,3,3,3,3,3,3,3,3,3,3,3,3,3,3,3,3,3,3,3,3,3,3,3,3,3,4),(-15.500567235150349,-15.483924641454777,-14.585822116447678,-13.644453567241939,-13.084234233867424,-12.266469594250710,-11.763382933534043,-11.411874959379439,-10.467512339639438,-9.950877024923567,-9.505009593726495,-9.148646155373518,-8.713279596675212,-8.427812887804826,-8.121391509190939,-7.820800986930932,-7.502905436642524,-7.183703613869883,-6.695613997139616,-6.414957865707656,-5.613088132494199,-5.408003172719395,-4.732002776129471,-4.119269170117312,-3.784279899916922,-1.892139949958461,-1.597912144814667,-0.458753712100465,0.0,0.024177011620752),.UNSPECIFIED.);
#166=EDGE_CURVE('',#74,#76,#165,.T.);
#167=ORIENTED_EDGE('',*,*,#166,.F.);
#168=CARTESIAN_POINT('',(0.0,0.0,-8.387070E-015));
#169=DIRECTION('',(0.0,0.0,-1.0));
#170=DIRECTION('',(-1.0,0.0,0.0));
#171=AXIS2_PLACEMENT_3D('',#168,#169,#170);
#172=CIRCLE('',#171,17.550000000000001);
#173=EDGE_CURVE('',#76,#74,#172,.T.);
#174=ORIENTED_EDGE('',*,*,#173,.F.);
#175=EDGE_LOOP('',(#167,#174));
#176=FACE_OUTER_BOUND('',#175,.T.);
#177=CARTESIAN_POINT('',(-17.550000000000001,2.149255E-015,-90.0));
#178=VERTEX_POINT('',#177);
#179=CARTESIAN_POINT('',(0.0,0.0,-90.0));
#180=DIRECTION('',(0.0,0.0,1.0));
#181=DIRECTION('',(1.0,0.0,0.0));
#182=AXIS2_PLACEMENT_3D('',#179,#180,#181);
#183=CIRCLE('',#182,17.550000000000001);
#184=EDGE_CURVE('',#178,#178,#183,.T.);
#185=ORIENTED_EDGE('',*,*,#184,.F.);
#186=EDGE_LOOP('',(#185));
#187=FACE_BOUND('',#186,.T.);
#188=ADVANCED_FACE('',(#176,#187),#72,.F.);
#189=CARTESIAN_POINT('',(45.0,0.0,-8.881784E-015));
#190=DIRECTION('',(0.0,1.0,0.0));
#191=DIRECTION('',(0.0,0.0,1.0));
#192=AXIS2_PLACEMENT_3D('',#189,#190,#191);
#193=TOROIDAL_SURFACE('',#192,45.0,17.550000000000001);
#194=CARTESIAN_POINT('',(44.999999999999993,2.149255E-015,-27.450000000000010));
#195=VERTEX_POINT('',#194);
#196=CARTESIAN_POINT('',(44.999999999999993,0.0,-45.000000000000007));
#197=DIRECTION('',(-1.0,0.0,0.0));
#198=DIRECTION('',(0.0,0.0,-1.0));
#199=AXIS2_PLACEMENT_3D('',#196,#197,#198);
#200=CIRCLE('',#199,17.550000000000001);
#201=EDGE_CURVE('',#195,#195,#200,.T.);
#202=ORIENTED_EDGE('',*,*,#201,.F.);
#203=EDGE_LOOP('',(#202));
#204=FACE_OUTER_BOUND('',#203,.T.);
#205=ORIENTED_EDGE('',*,*,#166,.T.);
#206=CARTESIAN_POINT('',(0.0,0.0,-8.387070E-015));
#207=DIRECTION('',(0.0,0.0,-1.0));
#208=DIRECTION('',(-1.0,0.0,0.0));
#209=AXIS2_PLACEMENT_3D('',#206,#207,#208);
#210=CIRCLE('',#209,17.550000000000001);
#211=EDGE_CURVE('',#74,#76,#210,.T.);
#212=ORIENTED_EDGE('',*,*,#211,.F.);
#213=EDGE_LOOP('',(#205,#212));
#214=FACE_BOUND('',#213,.T.);
#215=ADVANCED_FACE('',(#204,#214),#193,.F.);
#216=CARTESIAN_POINT('',(0.0,0.0,-90.0));
#217=DIRECTION('',(0.0,0.0,1.0));
#218=DIRECTION('',(-1.0,0.0,0.0));
#219=AXIS2_PLACEMENT_3D('',#216,#217,#218);
#220=CYLINDRICAL_SURFACE('',#219,19.050000000000001);
#221=CARTESIAN_POINT('',(19.050000000000001,2.332952E-015,-90.0));
#222=VERTEX_POINT('',#221);
#223=CARTESIAN_POINT('',(0.0,0.0,-90.0));
#224=DIRECTION('',(0.0,0.0,-1.0));
#225=DIRECTION('',(-1.0,0.0,0.0));
#226=AXIS2_PLACEMENT_3D('',#223,#224,#225);
#227=CIRCLE('',#226,19.050000000000001);
#228=EDGE_CURVE('',#222,#222,#227,.T.);
#229=ORIENTED_EDGE('',*,*,#228,.F.);
#230=EDGE_LOOP('',(#229));
#231=FACE_OUTER_BOUND('',#230,.T.);
#232=CARTESIAN_POINT('',(-1.166438E-015,-19.050000000000004,3.865587E-015));
#233=VERTEX_POINT('',#232);
#234=CARTESIAN_POINT('',(-1.166438E-015,19.050000000000004,3.865587E-015));
#235=VERTEX_POINT('',#234);
#236=CARTESIAN_POINT('',(-1.166438E-015,-19.050000000000004,3.865587E-015));
#237=CARTESIAN_POINT('',(-1.182733E-015,-19.050000000000004,-0.082564164083923));
#238=CARTESIAN_POINT('',(0.000113613488143,-19.050000001016375,-0.165127978639736));
#239=CARTESIAN_POINT('',(0.000340840130709,-19.049999996950866,-0.247691830045363));
#240=CARTESIAN_POINT('',(0.011725751977622,-19.049999793253498,-4.384452200062728));
#241=CARTESIAN_POINT('',(0.307003975397973,-19.053672740342027,-8.280651454896793));
#242=CARTESIAN_POINT('',(0.790525477352106,-19.033590556425693,-11.928729434578718));
#243=CARTESIAN_POINT('',(1.089064639623152,-19.021191276685858,-14.181150763417588));
#244=CARTESIAN_POINT('',(1.459527820566135,-18.998727871456001,-16.339052079242883));
#245=CARTESIAN_POINT('',(1.880993473735921,-18.956908069402111,-18.400511549206190));
#246=CARTESIAN_POINT('',(2.104994738199579,-18.934681611636837,-19.496139447801145));
#247=CARTESIAN_POINT('',(2.343071549069273,-18.907044131917747,-20.563060987806416));
#248=CARTESIAN_POINT('',(2.593310871355711,-18.872658496473363,-21.605461273576886));
#249=CARTESIAN_POINT('',(3.933002244171219,-18.688570165619865,-27.186097670396297));
#250=CARTESIAN_POINT('',(5.681270769057464,-18.301391578305136,-32.313537277576422));
#251=CARTESIAN_POINT('',(7.586747276764408,-17.474088409943104,-36.954221813178464));
#252=CARTESIAN_POINT('',(7.968306222894719,-17.308426475107520,-37.883487901511614));
#253=CARTESIAN_POINT('',(8.356234721716630,-17.125155266380169,-38.793222834367960));
#254=CARTESIAN_POINT('',(8.748603999115886,-16.922305636840790,-39.683103707256329));
#255=CARTESIAN_POINT('',(9.063716632721441,-16.759396651168540,-40.397769002433684));
#256=CARTESIAN_POINT('',(9.380931514777922,-16.584152688203083,-41.097771020534822));
#257=CARTESIAN_POINT('',(9.695442655029856,-16.398197819365016,-41.775347729317289));
#258=CARTESIAN_POINT('',(10.506937911468340,-15.918400843484118,-43.523617391910882));
#259=CARTESIAN_POINT('',(11.306814474192141,-15.363838271335016,-45.137913587585793));
#260=CARTESIAN_POINT('',(12.075986838595622,-14.733398856817297,-46.622715825520224));
#261=CARTESIAN_POINT('',(12.551060737008504,-14.344012388674564,-47.539793479622801));
#262=CARTESIAN_POINT('',(13.014506169105481,-13.925730819543864,-48.407456496955305));
#263=CARTESIAN_POINT('',(13.462457779585048,-13.478305922217743,-49.226440053342372));
#264=CARTESIAN_POINT('',(13.708365447549035,-13.232687398885052,-49.676029544127744));
#265=CARTESIAN_POINT('',(13.949262689053390,-12.978900700501246,-50.110403937174397));
#266=CARTESIAN_POINT('',(14.190995937008957,-12.708978492223332,-50.540867312122906));
#267=CARTESIAN_POINT('',(14.816754748329648,-12.010248790663661,-51.655179274184420));
#268=CARTESIAN_POINT('',(15.436790425067661,-11.214491805037694,-52.721666832548628));
#269=CARTESIAN_POINT('',(16.018894242416255,-10.310069216561219,-53.697308718733076));
#270=CARTESIAN_POINT('',(16.223631430840314,-9.991966272733601,-54.040460869144979));
#271=CARTESIAN_POINT('',(16.423641866857658,-9.660407821761874,-54.372393546380955));
#272=CARTESIAN_POINT('',(16.617380281990730,-9.314782475383183,-54.691209995376155));
#273=CARTESIAN_POINT('',(16.799638346764347,-8.989637837834545,-54.991134349417912));
#274=CARTESIAN_POINT('',(16.972682283230448,-8.658518106688945,-55.273435516487567));
#275=CARTESIAN_POINT('',(17.135787863028472,-8.322696336722018,-55.537751262948404));
#276=CARTESIAN_POINT('',(17.716802363332576,-7.126432431402607,-56.479296497284444));
#277=CARTESIAN_POINT('',(18.172783885244908,-5.867780615695125,-57.195720970624166));
#278=CARTESIAN_POINT('',(18.492926176618901,-4.573202534999244,-57.695118613201615));
#279=CARTESIAN_POINT('',(18.639327739706285,-3.981189984145305,-57.923493924572405));
#280=CARTESIAN_POINT('',(18.759530444642650,-3.373235046201809,-58.109682456812685));
#281=CARTESIAN_POINT('',(18.850407587452953,-2.750387933891537,-58.250093268093003));
#282=CARTESIAN_POINT('',(18.942678571086550,-2.117987817327796,-58.392657649729323));
#283=CARTESIAN_POINT('',(19.004694511539888,-1.468235429533502,-58.488006168198403));
#284=CARTESIAN_POINT('',(19.032693012147700,-0.811847710684795,-58.531057928134082));
#285=CARTESIAN_POINT('',(19.074639305370187,0.171527510300615,-58.595556444368988));
#286=CARTESIAN_POINT('',(19.040007203176454,1.153087698903044,-58.542542344459420));
#287=CARTESIAN_POINT('',(18.931536083616042,2.121188703237835,-58.375307237314722));
#288=CARTESIAN_POINT('',(18.862708082657281,2.735476240091573,-58.269191820035530));
#289=CARTESIAN_POINT('',(18.765317758665130,3.334302829516353,-58.118784451600462));
#290=CARTESIAN_POINT('',(18.643345579869923,3.915120124535716,-57.929286240869466));
#291=CARTESIAN_POINT('',(18.514552639770482,4.528417089671895,-57.729191170463231));
#292=CARTESIAN_POINT('',(18.358295015699071,5.121969542351740,-57.485411230856819));
#293=CARTESIAN_POINT('',(18.179195021823556,5.693800870991677,-57.203628415759098));
#294=CARTESIAN_POINT('',(18.037961871591694,6.144730757685154,-56.981422519509245));
#295=CARTESIAN_POINT('',(17.881921424401124,6.584733698031466,-56.734659082317918));
#296=CARTESIAN_POINT('',(17.709337943450006,7.020103247437453,-56.459550386280995));
#297=CARTESIAN_POINT('',(17.190967057211282,8.327777063744676,-55.633235273208086));
#298=CARTESIAN_POINT('',(16.528454916146124,9.574574875519195,-54.560974166168101));
#299=CARTESIAN_POINT('',(15.739845537993389,10.731251671641552,-53.227551106910902));
#300=CARTESIAN_POINT('',(15.229758352809640,11.479411695408277,-52.365068319109362));
#301=CARTESIAN_POINT('',(14.670787474383278,12.184379067674898,-51.399294201984212));
#302=CARTESIAN_POINT('',(14.072223754349661,12.840366762967367,-50.328920868452371));
#303=CARTESIAN_POINT('',(13.308096979042823,13.677801016778551,-48.962481680189875));
#304=CARTESIAN_POINT('',(12.478676928425623,14.435883568882495,-47.424790615985650));
#305=CARTESIAN_POINT('',(11.606555888448277,15.105971018386290,-45.707549266184593));
#306=CARTESIAN_POINT('',(11.229541891708958,15.395646804110761,-44.965193566715016));
#307=CARTESIAN_POINT('',(10.843738256835319,15.669323179836926,-44.187210951175338));
#308=CARTESIAN_POINT('',(10.459043889167853,15.922025653931744,-43.389260192474062));
#309=CARTESIAN_POINT('',(9.206638137041102,16.744720392230033,-40.791462553348644));
#310=CARTESIAN_POINT('',(7.948321504622088,17.359506814800497,-37.949500746667390));
#311=CARTESIAN_POINT('',(6.756137935442686,17.811712444267457,-34.872694595911064));
#312=CARTESIAN_POINT('',(6.061499321754927,18.075194931088628,-33.079960310352625));
#313=CARTESIAN_POINT('',(5.389449646193716,18.283466214040704,-31.207465023279020));
#314=CARTESIAN_POINT('',(4.755348353006076,18.446928254903646,-29.256840286351764));
#315=CARTESIAN_POINT('',(4.310133933839955,18.561698021753763,-27.887270047981112));
#316=CARTESIAN_POINT('',(3.883665243839142,18.654486863943681,-26.479971968102550));
#317=CARTESIAN_POINT('',(3.478003479266379,18.729815583667953,-25.020803869339449));
#318=CARTESIAN_POINT('',(2.237433919104206,18.960181185894083,-20.558466807842688));
#319=CARTESIAN_POINT('',(1.202961781260201,19.021776130196567,-15.645639893702565));
#320=CARTESIAN_POINT('',(0.592860696502613,19.040772468430539,-10.330291640146562));
#321=CARTESIAN_POINT('',(0.223619608404523,19.052269298668396,-7.113373949296826));
#322=CARTESIAN_POINT('',(0.009976749884855,19.049999824546418,-3.748944201127588));
#323=CARTESIAN_POINT('',(0.000340840130700,19.049999996950866,-0.247691830045363));
#324=CARTESIAN_POINT('',(0.000113613488115,19.050000001016375,-0.165127978636044));
#325=CARTESIAN_POINT('',(-1.182733E-015,19.050000000000004,-0.082564164087615));
#326=CARTESIAN_POINT('',(-1.166438E-015,19.050000000000004,3.865587E-015));
#327=B_SPLINE_CURVE_WITH_KNOTS('',3,(#236,#237,#238,#239,#240,#241,#242,#243,#244,#245,#246,#247,#248,#249,#250,#251,#252,#253,#254,#255,#256,#257,#258,#259,#260,#261,#262,#263,#264,#265,#266,#267,#268,#269,#270,#271,#272,#273,#274,#275,#276,#277,#278,#279,#280,#281,#282,#283,#284,#285,#286,#287,#288,#289,#290,#291,#292,#293,#294,#295,#296,#297,#298,#299,#300,#301,#302,#303,#304,#305,#306,#307,#308,#309,#310,#311,#312,#313,#314,#315,#316,#317,#318,#319,#320,#321,#322,#323,#324,#325,#326),.UNSPECIFIED.,.F.,.U.,(4,3,3,3,3,3,3,3,3,3,3,3,3,3,3,3,3,3,3,3,3,3,3,3,3,3,3,3,3,3,4),(-22.971828796444395,-22.943209183143026,-21.509258609196586,-20.623899010184036,-20.153346621887867,-17.634178294151884,-17.129731659219331,-16.724609452147778,-15.679321361388542,-15.033706527544805,-14.679289589466373,-13.761833990124725,-13.439147083914950,-13.135581624203812,-12.054221108505583,-11.559713278628593,-11.057620866100708,-10.305405029413929,-9.828102752655937,-9.324109431006473,-8.926674663019560,-7.732941567777328,-6.960812841843174,-5.975112884223448,-5.548999233052227,-4.161749424789170,-3.353453363207190,-2.785933527752456,-1.050379689211913,0.0,0.024769249226286),.UNSPECIFIED.);
#328=EDGE_CURVE('',#233,#235,#327,.T.);
#329=ORIENTED_EDGE('',*,*,#328,.F.);
#330=CARTESIAN_POINT('',(0.0,0.0,0.0));
#331=DIRECTION('',(0.0,0.0,-1.0));
#332=DIRECTION('',(-1.0,0.0,0.0));
#333=AXIS2_PLACEMENT_3D('',#330,#331,#332);
#334=CIRCLE('',#333,19.050000000000004);
#335=EDGE_CURVE('',#233,#235,#334,.T.);
#336=ORIENTED_EDGE('',*,*,#335,.T.);
#337=EDGE_LOOP('',(#329,#336));
#338=FACE_BOUND('',#337,.T.);
#339=ADVANCED_FACE('',(#231,#338),#220,.T.);
#340=CARTESIAN_POINT('',(0.0,0.0,-90.0));
#341=DIRECTION('',(0.0,0.0,-1.0));
#342=DIRECTION('',(-1.0,0.0,0.0));
#343=AXIS2_PLACEMENT_3D('',#340,#341,#342);
#344=PLANE('',#343);
#345=ORIENTED_EDGE('',*,*,#228,.T.);
#346=EDGE_LOOP('',(#345));
#347=FACE_OUTER_BOUND('',#346,.T.);
#348=ORIENTED_EDGE('',*,*,#184,.T.);
#349=EDGE_LOOP('',(#348));
#350=FACE_BOUND('',#349,.T.);
#351=ADVANCED_FACE('',(#347,#350),#344,.T.);
#352=CARTESIAN_POINT('',(45.0,0.0,-8.881784E-015));
#353=DIRECTION('',(0.0,1.0,0.0));
#354=DIRECTION('',(0.0,0.0,1.0));
#355=AXIS2_PLACEMENT_3D('',#352,#353,#354);
#356=TOROIDAL_SURFACE('',#355,45.0,19.050000000000004);
#357=CARTESIAN_POINT('',(44.999999999999993,2.332952E-015,-25.950000000000006));
#358=VERTEX_POINT('',#357);
#359=CARTESIAN_POINT('',(44.999999999999986,0.0,-45.000000000000007));
#360=DIRECTION('',(1.0,0.0,0.0));
#361=DIRECTION('',(0.0,0.0,-1.0));
#362=AXIS2_PLACEMENT_3D('',#359,#360,#361);
#363=CIRCLE('',#362,19.050000000000004);
#364=EDGE_CURVE('',#358,#358,#363,.T.);
#365=ORIENTED_EDGE('',*,*,#364,.F.);
#366=EDGE_LOOP('',(#365));
#367=FACE_OUTER_BOUND('',#366,.T.);
#368=ORIENTED_EDGE('',*,*,#328,.T.);
#369=CARTESIAN_POINT('',(0.0,0.0,0.0));
#370=DIRECTION('',(0.0,0.0,-1.0));
#371=DIRECTION('',(-1.0,0.0,0.0));
#372=AXIS2_PLACEMENT_3D('',#369,#370,#371);
#373=CIRCLE('',#372,19.050000000000004);
#374=EDGE_CURVE('',#235,#233,#373,.T.);
#375=ORIENTED_EDGE('',*,*,#374,.T.);
#376=EDGE_LOOP('',(#368,#375));
#377=FACE_BOUND('',#376,.T.);
#378=ADVANCED_FACE('',(#367,#377),#356,.T.);
#379=CARTESIAN_POINT('',(44.999999999999986,0.0,-45.000000000000007));
#380=DIRECTION('',(1.0,0.0,0.0));
#381=DIRECTION('',(0.0,0.0,-1.0));
#382=AXIS2_PLACEMENT_3D('',#379,#380,#381);
#383=PLANE('',#382);
#384=ORIENTED_EDGE('',*,*,#364,.T.);
#385=EDGE_LOOP('',(#384));
#386=FACE_OUTER_BOUND('',#385,.T.);
#387=ORIENTED_EDGE('',*,*,#201,.T.);
#388=EDGE_LOOP('',(#387));
#389=FACE_BOUND('',#388,.T.);
#390=ADVANCED_FACE('',(#386,#389),#383,.T.);
#391=CARTESIAN_POINT('',(0.0,0.0,0.0));
#392=DIRECTION('',(0.0,0.0,-1.0));
#393=DIRECTION('',(-1.0,0.0,0.0));
#394=AXIS2_PLACEMENT_3D('',#391,#392,#393);
#395=PLANE('',#394);
#396=ORIENTED_EDGE('',*,*,#374,.F.);
#397=ORIENTED_EDGE('',*,*,#335,.F.);
#398=EDGE_LOOP('',(#396,#397));
#399=FACE_OUTER_BOUND('',#398,.T.);
#400=ORIENTED_EDGE('',*,*,#211,.T.);
#401=ORIENTED_EDGE('',*,*,#173,.T.);
#402=EDGE_LOOP('',(#400,#401));
#403=FACE_BOUND('',#402,.T.);
#404=ADVANCED_FACE('',(#399,#403),#395,.F.);
#405=CLOSED_SHELL('',(#188,#215,#339,#351,#378,#390,#404));
#406=MANIFOLD_SOLID_BREP('',#405);
#407=COLOUR_RGB('Metall - Stahl',0.639216005802155,0.639216005802155,0.686275005340576);
#408=FILL_AREA_STYLE_COLOUR('Metall - Stahl',#407);
#409=FILL_AREA_STYLE('Metall - Stahl',(#408));
#410=SURFACE_STYLE_FILL_AREA(#409);
#411=SURFACE_SIDE_STYLE('Metall - Stahl',(#410));
#412=SURFACE_STYLE_USAGE(.BOTH.,#411);
#413=PRESENTATION_STYLE_ASSIGNMENT((#412));
#414=STYLED_ITEM('',(#413),#406);
#415=MECHANICAL_DESIGN_GEOMETRIC_PRESENTATION_REPRESENTATION('',(#414),#36);
#416=ADVANCED_BREP_SHAPE_REPRESENTATION('ABSR',(#406),#36);
#417=SHAPE_REPRESENTATION_RELATIONSHIP('SRR','None',#416,#41);
ENDSEC;
END-ISO-10303-21;
