ISO-10303-21;
HEADER;
/****************************************************************
 * Generated by software with PDE/Lib inside                    *
 * PDElib Version v51a, created Thu 12/14/2006                  *
 * International Technegroup Inc. (www.iti-oh.com)              *
 ****************************************************************/
FILE_DESCRIPTION((''),'2;1');
FILE_NAME('T:\\Arbeitspl\S\dtze\\Aushilfe\\KPeters\\3D\\Steps 08_10\\10195\\10195065X000.stp','2010-09-03T11:17:11',('thilbrands'),(''),'Autodesk Inventor 2008','Autodesk Inventor 2008','');
FILE_SCHEMA(('AUTOMOTIVE_DESIGN { 1 0 10303 214 1 1 1 1 }'));
ENDSEC;
DATA;
#5=APPLICATION_CONTEXT('automotive design');
#6=APPLICATION_PROTOCOL_DEFINITION('International Standard','automotive_design',2001,#5);
#7=PRODUCT_CONTEXT('',#5,'mechanical');
#8=PRODUCT('10195032X000','10195032X000',$,(#7));
#9=PRODUCT_RELATED_PRODUCT_CATEGORY('part',$,(#8));
#10=PRODUCT_DEFINITION_FORMATION('',$,#8);
#11=PRODUCT_DEFINITION_CONTEXT('part definition',#5,'design');
#12=PRODUCT_DEFINITION('',$,#10,#11);
#18=(NAMED_UNIT(*)PLANE_ANGLE_UNIT()SI_UNIT($,.RADIAN.));
#19=DIMENSIONAL_EXPONENTS(0.0,0.0,0.0,0.0,0.0,0.0,0.0);
#20=PLANE_ANGLE_MEASURE_WITH_UNIT(PLANE_ANGLE_MEASURE(0.017453292500000),#18);
#24=(CONVERSION_BASED_UNIT('DEGREE',#20)NAMED_UNIT(#19)PLANE_ANGLE_UNIT());
#28=(NAMED_UNIT(*)SI_UNIT($,.STERADIAN.)SOLID_ANGLE_UNIT());
#32=(LENGTH_UNIT()NAMED_UNIT(*)SI_UNIT(.MILLI.,.METRE.));
#34=UNCERTAINTY_MEASURE_WITH_UNIT(LENGTH_MEASURE(0.010000000000000),#32,'DISTANCE_ACCURACY_VALUE','');
#36=(GEOMETRIC_REPRESENTATION_CONTEXT(3)GLOBAL_UNCERTAINTY_ASSIGNED_CONTEXT((#34))GLOBAL_UNIT_ASSIGNED_CONTEXT((#24,#28,#32))REPRESENTATION_CONTEXT('None','None'));
#37=AXIS2_PLACEMENT_3D('',#38,#39,#40);
#38=CARTESIAN_POINT('',(0.0,0.0,0.0));
#39=DIRECTION('',(0.0,0.0,1.0));
#40=DIRECTION('',(1.0,0.0,0.0));
#41=SHAPE_REPRESENTATION('',(#37),#36);
#42=PRODUCT_DEFINITION_SHAPE('','',#12);
#43=SHAPE_DEFINITION_REPRESENTATION(#42,#41);
#49=(NAMED_UNIT(*)PLANE_ANGLE_UNIT()SI_UNIT($,.RADIAN.));
#50=DIMENSIONAL_EXPONENTS(0.0,0.0,0.0,0.0,0.0,0.0,0.0);
#51=PLANE_ANGLE_MEASURE_WITH_UNIT(PLANE_ANGLE_MEASURE(0.017453292500000),#49);
#55=(CONVERSION_BASED_UNIT('DEGREE',#51)NAMED_UNIT(#50)PLANE_ANGLE_UNIT());
#59=(NAMED_UNIT(*)SI_UNIT($,.STERADIAN.)SOLID_ANGLE_UNIT());
#63=(LENGTH_UNIT()NAMED_UNIT(*)SI_UNIT(.MILLI.,.METRE.));
#65=UNCERTAINTY_MEASURE_WITH_UNIT(LENGTH_MEASURE(0.000001000000000),#63,'DISTANCE_ACCURACY_VALUE','');
#67=(GEOMETRIC_REPRESENTATION_CONTEXT(3)GLOBAL_UNCERTAINTY_ASSIGNED_CONTEXT((#65))GLOBAL_UNIT_ASSIGNED_CONTEXT((#55,#59,#63))REPRESENTATION_CONTEXT('','3D'));
#68=CARTESIAN_POINT('',(-12.375000000000004,16.884086487850421,0.0));
#69=DIRECTION('',(-1.0,0.0,0.0));
#70=DIRECTION('',(0.0,0.0,1.0));
#71=AXIS2_PLACEMENT_3D('',#68,#69,#70);
#72=PLANE('',#71);
#73=CARTESIAN_POINT('',(-12.375000000000011,33.768172975700843,0.0));
#74=VERTEX_POINT('',#73);
#75=CARTESIAN_POINT('',(-12.375000000000005,-2.113694E-015,0.0));
#76=DIRECTION('',(1.0,0.0,0.0));
#77=DIRECTION('',(0.0,1.0,0.0));
#78=AXIS2_PLACEMENT_3D('',#75,#76,#77);
#79=CIRCLE('',#78,33.768172975700843);
#80=EDGE_CURVE('',#74,#74,#79,.T.);
#81=ORIENTED_EDGE('',*,*,#80,.F.);
#82=EDGE_LOOP('',(#81));
#83=FACE_OUTER_BOUND('',#82,.T.);
#84=ADVANCED_FACE('',(#83),#72,.T.);
#85=CARTESIAN_POINT('',(-11.375000000000002,0.0,0.0));
#86=DIRECTION('',(1.0,1.708035E-016,0.0));
#87=DIRECTION('',(0.0,0.0,-1.0));
#88=AXIS2_PLACEMENT_3D('',#85,#86,#87);
#89=TOROIDAL_SURFACE('',#88,33.768172975700843,1.000000000000019);
#90=CARTESIAN_POINT('',(-12.060507246376847,34.496238779845527,0.0));
#91=VERTEX_POINT('',#90);
#92=CARTESIAN_POINT('',(-12.060507246376842,-2.059977E-015,0.0));
#93=DIRECTION('',(1.0,0.0,0.0));
#94=DIRECTION('',(0.0,1.0,0.0));
#95=AXIS2_PLACEMENT_3D('',#92,#93,#94);
#96=CIRCLE('',#95,34.496238779845527);
#97=EDGE_CURVE('',#91,#91,#96,.T.);
#98=ORIENTED_EDGE('',*,*,#97,.F.);
#99=EDGE_LOOP('',(#98));
#100=FACE_OUTER_BOUND('',#99,.T.);
#101=ORIENTED_EDGE('',*,*,#80,.T.);
#102=EDGE_LOOP('',(#101));
#103=FACE_BOUND('',#102,.T.);
#104=ADVANCED_FACE('',(#100,#103),#89,.T.);
#105=CARTESIAN_POINT('',(-12.060507246376853,-8.815341E-015,38.063761220154497));
#106=CARTESIAN_POINT('',(-11.290000000000090,-8.594895E-015,37.338293415224925));
#107=CARTESIAN_POINT('',(-11.290000000000090,-8.465295E-015,36.280000000000008));
#108=CARTESIAN_POINT('',(-11.290000000000090,-8.335696E-015,35.221706584775092));
#109=CARTESIAN_POINT('',(-12.060507246376853,-8.378460E-015,34.496238779845520));
#110=CARTESIAN_POINT('',(-12.060507246376845,-38.063761220154504,38.063761220154483));
#111=CARTESIAN_POINT('',(-11.290000000000083,-37.338293415224932,37.338293415224911));
#112=CARTESIAN_POINT('',(-11.290000000000084,-36.280000000000015,36.279999999999994));
#113=CARTESIAN_POINT('',(-11.290000000000084,-35.221706584775099,35.221706584775077));
#114=CARTESIAN_POINT('',(-12.060507246376847,-34.496238779845527,34.496238779845505));
#115=CARTESIAN_POINT('',(-12.060507246376845,-38.063761220154504,-4.661312E-015));
#116=CARTESIAN_POINT('',(-11.290000000000083,-37.338293415224932,-4.572471E-015));
#117=CARTESIAN_POINT('',(-11.290000000000084,-36.280000000000015,-4.442872E-015));
#118=CARTESIAN_POINT('',(-11.290000000000086,-35.221706584775099,-4.313273E-015));
#119=CARTESIAN_POINT('',(-12.060507246376847,-34.496238779845527,-4.224431E-015));
#120=CARTESIAN_POINT('',(-12.060507246376845,-38.063761220154490,-38.063761220154497));
#121=CARTESIAN_POINT('',(-11.290000000000083,-37.338293415224918,-37.338293415224925));
#122=CARTESIAN_POINT('',(-11.290000000000084,-36.280000000000001,-36.280000000000008));
#123=CARTESIAN_POINT('',(-11.290000000000084,-35.221706584775085,-35.221706584775092));
#124=CARTESIAN_POINT('',(-12.060507246376847,-34.496238779845513,-34.496238779845520));
#125=CARTESIAN_POINT('',(-12.060507246376853,5.072836E-016,-38.063761220154497));
#126=CARTESIAN_POINT('',(-11.290000000000090,5.500477E-016,-37.338293415224925));
#127=CARTESIAN_POINT('',(-11.290000000000090,4.204484E-016,-36.280000000000008));
#128=CARTESIAN_POINT('',(-11.290000000000090,2.908491E-016,-35.221706584775092));
#129=CARTESIAN_POINT('',(-12.060507246376853,7.040253E-017,-34.496238779845520));
#130=CARTESIAN_POINT('',(-12.060507246376860,38.063761220154490,-38.063761220154483));
#131=CARTESIAN_POINT('',(-11.290000000000097,37.338293415224918,-37.338293415224911));
#132=CARTESIAN_POINT('',(-11.290000000000095,36.280000000000001,-36.279999999999994));
#133=CARTESIAN_POINT('',(-11.290000000000095,35.221706584775085,-35.221706584775077));
#134=CARTESIAN_POINT('',(-12.060507246376858,34.496238779845513,-34.496238779845505));
#135=CARTESIAN_POINT('',(-12.060507246376860,38.063761220154490,4.661312E-015));
#136=CARTESIAN_POINT('',(-11.290000000000097,37.338293415224918,4.572471E-015));
#137=CARTESIAN_POINT('',(-11.290000000000095,36.280000000000001,4.442872E-015));
#138=CARTESIAN_POINT('',(-11.290000000000095,35.221706584775085,4.313273E-015));
#139=CARTESIAN_POINT('',(-12.060507246376858,34.496238779845513,4.224431E-015));
#140=CARTESIAN_POINT('',(-12.060507246376860,38.063761220154475,38.063761220154497));
#141=CARTESIAN_POINT('',(-11.290000000000097,37.338293415224904,37.338293415224925));
#142=CARTESIAN_POINT('',(-11.290000000000095,36.279999999999987,36.280000000000008));
#143=CARTESIAN_POINT('',(-11.290000000000095,35.221706584775070,35.221706584775092));
#144=CARTESIAN_POINT('',(-12.060507246376858,34.496238779845498,34.496238779845520));
#145=CARTESIAN_POINT('',(-12.060507246376853,-8.815341E-015,38.063761220154497));
#146=CARTESIAN_POINT('',(-11.290000000000090,-8.594895E-015,37.338293415224925));
#147=CARTESIAN_POINT('',(-11.290000000000090,-8.465295E-015,36.280000000000008));
#148=CARTESIAN_POINT('',(-11.290000000000090,-8.335696E-015,35.221706584775092));
#149=CARTESIAN_POINT('',(-12.060507246376853,-8.378460E-015,34.496238779845520));
#157=(BOUNDED_SURFACE()B_SPLINE_SURFACE(2,2,((#105,#110,#115,#120,#125,#130,#135,#140,#145),(#106,#111,#116,#121,#126,#131,#136,#141,#146),(#107,#112,#117,#122,#127,#132,#137,#142,#147),(#108,#113,#118,#123,#128,#133,#138,#143,#148),(#109,#114,#119,#124,#129,#134,#139,#144,#149)),.UNSPECIFIED.,.F.,.T.,.U.)B_SPLINE_SURFACE_WITH_KNOTS((3,2,3),(3,2,2,2,3),(0.755300174568944,1.570796326794897,2.386292479020849),(0.0,1.570796326794897,3.141592653589793,4.712388980384690,6.283185307179586),.UNSPECIFIED.)GEOMETRIC_REPRESENTATION_ITEM()RATIONAL_B_SPLINE_SURFACE(((1.0,0.707106781186548,1.0,0.707106781186548,1.0,0.707106781186548,1.0,0.707106781186548,1.0),(0.918016134492434,0.649135433938262,0.918016134492434,0.649135433938262,0.918016134492434,0.649135433938262,0.918016134492434,0.649135433938262,0.918016134492434),(1.0,0.707106781186548,1.0,0.707106781186548,1.0,0.707106781186548,1.0,0.707106781186548,1.0),(0.918016134492434,0.649135433938262,0.918016134492434,0.649135433938262,0.918016134492434,0.649135433938262,0.918016134492434,0.649135433938262,0.918016134492434),(1.0,0.707106781186548,1.0,0.707106781186548,1.0,0.707106781186548,1.0,0.707106781186548,1.0)))REPRESENTATION_ITEM('')SURFACE());
#158=CARTESIAN_POINT('',(-11.439130434782641,37.121723971297016,0.0));
#159=VERTEX_POINT('',#158);
#160=CARTESIAN_POINT('',(-11.439130434782633,-1.953844E-015,0.0));
#161=DIRECTION('',(1.0,0.0,0.0));
#162=DIRECTION('',(0.0,1.0,0.0));
#163=AXIS2_PLACEMENT_3D('',#160,#161,#162);
#164=CIRCLE('',#163,37.121723971297016);
#165=EDGE_CURVE('',#159,#159,#164,.T.);
#166=ORIENTED_EDGE('',*,*,#165,.F.);
#167=EDGE_LOOP('',(#166));
#168=FACE_OUTER_BOUND('',#167,.T.);
#169=ORIENTED_EDGE('',*,*,#97,.T.);
#170=EDGE_LOOP('',(#169));
#171=FACE_BOUND('',#170,.T.);
#172=ADVANCED_FACE('',(#168,#171),#157,.T.);
#173=CARTESIAN_POINT('',(-10.499999999999998,0.0,0.0));
#174=DIRECTION('',(1.0,1.708035E-016,0.0));
#175=DIRECTION('',(0.0,0.0,-1.0));
#176=AXIS2_PLACEMENT_3D('',#173,#174,#175);
#177=TOROIDAL_SURFACE('',#176,37.465284775908046,1.0);
#178=CARTESIAN_POINT('',(-11.500000000000007,37.465284775908046,0.0));
#179=VERTEX_POINT('',#178);
#180=CARTESIAN_POINT('',(-11.500000000000002,-1.964241E-015,0.0));
#181=DIRECTION('',(1.0,0.0,0.0));
#182=DIRECTION('',(0.0,1.0,0.0));
#183=AXIS2_PLACEMENT_3D('',#180,#181,#182);
#184=CIRCLE('',#183,37.465284775908046);
#185=EDGE_CURVE('',#179,#179,#184,.T.);
#186=ORIENTED_EDGE('',*,*,#185,.F.);
#187=EDGE_LOOP('',(#186));
#188=FACE_OUTER_BOUND('',#187,.T.);
#189=ORIENTED_EDGE('',*,*,#165,.T.);
#190=EDGE_LOOP('',(#189));
#191=FACE_BOUND('',#190,.T.);
#192=ADVANCED_FACE('',(#188,#191),#177,.T.);
#193=CARTESIAN_POINT('',(-11.500000000000007,38.957642387954017,0.0));
#194=DIRECTION('',(-1.0,0.0,0.0));
#195=DIRECTION('',(0.0,0.0,1.0));
#196=AXIS2_PLACEMENT_3D('',#193,#194,#195);
#197=PLANE('',#196);
#198=CARTESIAN_POINT('',(-11.500000000000011,40.449999999999982,0.0));
#199=VERTEX_POINT('',#198);
#200=CARTESIAN_POINT('',(-11.500000000000004,-1.964241E-015,0.0));
#201=DIRECTION('',(1.0,0.0,0.0));
#202=DIRECTION('',(0.0,1.0,0.0));
#203=AXIS2_PLACEMENT_3D('',#200,#201,#202);
#204=CIRCLE('',#203,40.449999999999982);
#205=EDGE_CURVE('',#199,#199,#204,.T.);
#206=ORIENTED_EDGE('',*,*,#205,.F.);
#207=EDGE_LOOP('',(#206));
#208=FACE_OUTER_BOUND('',#207,.T.);
#209=ORIENTED_EDGE('',*,*,#185,.T.);
#210=EDGE_LOOP('',(#209));
#211=FACE_BOUND('',#210,.T.);
#212=ADVANCED_FACE('',(#208,#211),#197,.T.);
#213=CARTESIAN_POINT('',(-11.900000000000016,-5.002517E-015,40.849999999999980));
#214=CARTESIAN_POINT('',(-11.500000000000005,-4.934196E-015,40.849999999999994));
#215=CARTESIAN_POINT('',(-11.500000000000004,-4.885211E-015,40.449999999999982));
#216=CARTESIAN_POINT('',(-11.500000000000005,-4.836227E-015,40.049999999999969));
#217=CARTESIAN_POINT('',(-11.900000000000016,-4.904548E-015,40.049999999999983));
#218=CARTESIAN_POINT('',(-11.900000000000009,-40.849999999999980,40.849999999999966));
#219=CARTESIAN_POINT('',(-11.499999999999996,-40.849999999999994,40.849999999999980));
#220=CARTESIAN_POINT('',(-11.499999999999996,-40.449999999999982,40.449999999999967));
#221=CARTESIAN_POINT('',(-11.499999999999996,-40.049999999999969,40.049999999999955));
#222=CARTESIAN_POINT('',(-11.900000000000009,-40.049999999999983,40.049999999999969));
#223=CARTESIAN_POINT('',(-11.900000000000009,-40.849999999999980,-5.002517E-015));
#224=CARTESIAN_POINT('',(-11.499999999999996,-40.849999999999994,-5.002517E-015));
#225=CARTESIAN_POINT('',(-11.499999999999996,-40.449999999999982,-4.953533E-015));
#226=CARTESIAN_POINT('',(-11.499999999999996,-40.049999999999969,-4.904548E-015));
#227=CARTESIAN_POINT('',(-11.900000000000009,-40.049999999999983,-4.904548E-015));
#228=CARTESIAN_POINT('',(-11.900000000000009,-40.849999999999966,-40.849999999999980));
#229=CARTESIAN_POINT('',(-11.499999999999996,-40.849999999999980,-40.849999999999994));
#230=CARTESIAN_POINT('',(-11.499999999999996,-40.449999999999967,-40.449999999999982));
#231=CARTESIAN_POINT('',(-11.499999999999996,-40.049999999999955,-40.049999999999969));
#232=CARTESIAN_POINT('',(-11.900000000000009,-40.049999999999969,-40.049999999999983));
#233=CARTESIAN_POINT('',(-11.900000000000016,5.002517E-015,-40.849999999999980));
#234=CARTESIAN_POINT('',(-11.500000000000005,5.070838E-015,-40.849999999999994));
#235=CARTESIAN_POINT('',(-11.500000000000004,5.021854E-015,-40.449999999999982));
#236=CARTESIAN_POINT('',(-11.500000000000005,4.972870E-015,-40.049999999999969));
#237=CARTESIAN_POINT('',(-11.900000000000016,4.904548E-015,-40.049999999999983));
#238=CARTESIAN_POINT('',(-11.900000000000023,40.849999999999980,-40.849999999999966));
#239=CARTESIAN_POINT('',(-11.500000000000011,40.849999999999994,-40.849999999999980));
#240=CARTESIAN_POINT('',(-11.500000000000012,40.449999999999982,-40.449999999999967));
#241=CARTESIAN_POINT('',(-11.500000000000011,40.049999999999969,-40.049999999999955));
#242=CARTESIAN_POINT('',(-11.900000000000023,40.049999999999983,-40.049999999999969));
#243=CARTESIAN_POINT('',(-11.900000000000023,40.849999999999980,5.002517E-015));
#244=CARTESIAN_POINT('',(-11.500000000000009,40.849999999999994,5.002517E-015));
#245=CARTESIAN_POINT('',(-11.500000000000011,40.449999999999982,4.953533E-015));
#246=CARTESIAN_POINT('',(-11.500000000000009,40.049999999999969,4.904548E-015));
#247=CARTESIAN_POINT('',(-11.900000000000023,40.049999999999983,4.904548E-015));
#248=CARTESIAN_POINT('',(-11.900000000000023,40.849999999999966,40.849999999999980));
#249=CARTESIAN_POINT('',(-11.500000000000011,40.849999999999980,40.849999999999994));
#250=CARTESIAN_POINT('',(-11.500000000000012,40.449999999999967,40.449999999999982));
#251=CARTESIAN_POINT('',(-11.500000000000011,40.049999999999955,40.049999999999969));
#252=CARTESIAN_POINT('',(-11.900000000000023,40.049999999999969,40.049999999999983));
#253=CARTESIAN_POINT('',(-11.900000000000016,-5.002517E-015,40.849999999999980));
#254=CARTESIAN_POINT('',(-11.500000000000005,-4.934196E-015,40.849999999999994));
#255=CARTESIAN_POINT('',(-11.500000000000004,-4.885211E-015,40.449999999999982));
#256=CARTESIAN_POINT('',(-11.500000000000005,-4.836227E-015,40.049999999999969));
#257=CARTESIAN_POINT('',(-11.900000000000016,-4.904548E-015,40.049999999999983));
#265=(BOUNDED_SURFACE()B_SPLINE_SURFACE(2,2,((#213,#218,#223,#228,#233,#238,#243,#248,#253),(#214,#219,#224,#229,#234,#239,#244,#249,#254),(#215,#220,#225,#230,#235,#240,#245,#250,#255),(#216,#221,#226,#231,#236,#241,#246,#251,#256),(#217,#222,#227,#232,#237,#242,#247,#252,#257)),.UNSPECIFIED.,.F.,.T.,.U.)B_SPLINE_SURFACE_WITH_KNOTS((3,2,3),(3,2,2,2,3),(-3.520688E-014,1.570796326794897,3.141592653589828),(0.0,1.570796326794897,3.141592653589793,4.712388980384690,6.283185307179586),.UNSPECIFIED.)GEOMETRIC_REPRESENTATION_ITEM()RATIONAL_B_SPLINE_SURFACE(((1.0,0.707106781186548,1.0,0.707106781186548,1.0,0.707106781186548,1.0,0.707106781186548,1.0),(0.707106781186554,0.500000000000005,0.707106781186554,0.500000000000005,0.707106781186554,0.500000000000005,0.707106781186554,0.500000000000005,0.707106781186554),(1.0,0.707106781186548,1.0,0.707106781186548,1.0,0.707106781186548,1.0,0.707106781186548,1.0),(0.707106781186554,0.500000000000005,0.707106781186554,0.500000000000005,0.707106781186554,0.500000000000005,0.707106781186554,0.500000000000005,0.707106781186554),(1.0,0.707106781186548,1.0,0.707106781186548,1.0,0.707106781186548,1.0,0.707106781186548,1.0)))REPRESENTATION_ITEM('')SURFACE());
#266=CARTESIAN_POINT('',(-11.900000000000009,40.849999999999994,0.0));
#267=VERTEX_POINT('',#266);
#268=CARTESIAN_POINT('',(-11.900000000000002,-2.032562E-015,0.0));
#269=DIRECTION('',(1.0,0.0,0.0));
#270=DIRECTION('',(0.0,1.0,0.0));
#271=AXIS2_PLACEMENT_3D('',#268,#269,#270);
#272=CIRCLE('',#271,40.849999999999994);
#273=EDGE_CURVE('',#267,#267,#272,.T.);
#274=ORIENTED_EDGE('',*,*,#273,.F.);
#275=EDGE_LOOP('',(#274));
#276=FACE_OUTER_BOUND('',#275,.T.);
#277=ORIENTED_EDGE('',*,*,#205,.T.);
#278=EDGE_LOOP('',(#277));
#279=FACE_BOUND('',#278,.T.);
#280=ADVANCED_FACE('',(#276,#279),#265,.T.);
#281=CARTESIAN_POINT('',(-12.300000000000006,-2.100884E-015,0.0));
#282=DIRECTION('',(1.0,1.708035E-016,0.0));
#283=DIRECTION('',(0.0,1.0,0.0));
#284=AXIS2_PLACEMENT_3D('',#281,#282,#283);
#285=CYLINDRICAL_SURFACE('',#284,40.849999999999994);
#286=CARTESIAN_POINT('',(-12.700000000000015,40.849999999999994,0.0));
#287=VERTEX_POINT('',#286);
#288=CARTESIAN_POINT('',(-12.700000000000010,-2.169205E-015,0.0));
#289=DIRECTION('',(1.0,0.0,0.0));
#290=DIRECTION('',(0.0,1.0,0.0));
#291=AXIS2_PLACEMENT_3D('',#288,#289,#290);
#292=CIRCLE('',#291,40.849999999999994);
#293=EDGE_CURVE('',#287,#287,#292,.T.);
#294=ORIENTED_EDGE('',*,*,#293,.F.);
#295=EDGE_LOOP('',(#294));
#296=FACE_OUTER_BOUND('',#295,.T.);
#297=ORIENTED_EDGE('',*,*,#273,.T.);
#298=EDGE_LOOP('',(#297));
#299=FACE_BOUND('',#298,.T.);
#300=ADVANCED_FACE('',(#296,#299),#285,.F.);
#301=CARTESIAN_POINT('',(-12.850000000000009,-2.194826E-015,0.0));
#302=DIRECTION('',(-1.0,-1.708035E-016,0.0));
#303=DIRECTION('',(0.0,1.0,0.0));
#304=AXIS2_PLACEMENT_3D('',#301,#302,#303);
#305=CONICAL_SURFACE('',#304,41.0,45.000000000000220);
#306=CARTESIAN_POINT('',(-13.000000000000016,41.149999999999991,0.0));
#307=VERTEX_POINT('',#306);
#308=CARTESIAN_POINT('',(-13.000000000000009,-2.220446E-015,0.0));
#309=DIRECTION('',(1.0,0.0,0.0));
#310=DIRECTION('',(0.0,1.0,0.0));
#311=AXIS2_PLACEMENT_3D('',#308,#309,#310);
#312=CIRCLE('',#311,41.149999999999991);
#313=EDGE_CURVE('',#307,#307,#312,.T.);
#314=ORIENTED_EDGE('',*,*,#313,.F.);
#315=EDGE_LOOP('',(#314));
#316=FACE_OUTER_BOUND('',#315,.T.);
#317=ORIENTED_EDGE('',*,*,#293,.T.);
#318=EDGE_LOOP('',(#317));
#319=FACE_BOUND('',#318,.T.);
#320=ADVANCED_FACE('',(#316,#319),#305,.F.);
#321=CARTESIAN_POINT('',(-13.000000000000016,43.324999999999996,0.0));
#322=DIRECTION('',(-1.0,0.0,0.0));
#323=DIRECTION('',(0.0,0.0,1.0));
#324=AXIS2_PLACEMENT_3D('',#321,#322,#323);
#325=PLANE('',#324);
#326=CARTESIAN_POINT('',(-13.000000000000016,45.499999999999986,0.0));
#327=VERTEX_POINT('',#326);
#328=CARTESIAN_POINT('',(-13.000000000000009,-2.220446E-015,0.0));
#329=DIRECTION('',(1.0,0.0,0.0));
#330=DIRECTION('',(0.0,1.0,0.0));
#331=AXIS2_PLACEMENT_3D('',#328,#329,#330);
#332=CIRCLE('',#331,45.499999999999986);
#333=EDGE_CURVE('',#327,#327,#332,.T.);
#334=ORIENTED_EDGE('',*,*,#333,.F.);
#335=EDGE_LOOP('',(#334));
#336=FACE_OUTER_BOUND('',#335,.T.);
#337=ORIENTED_EDGE('',*,*,#313,.T.);
#338=EDGE_LOOP('',(#337));
#339=FACE_BOUND('',#338,.T.);
#340=ADVANCED_FACE('',(#336,#339),#325,.T.);
#341=CARTESIAN_POINT('',(-11.250000000000009,-1.921540E-015,0.0));
#342=DIRECTION('',(1.0,1.708035E-016,0.0));
#343=DIRECTION('',(0.0,1.0,0.0));
#344=AXIS2_PLACEMENT_3D('',#341,#342,#343);
#345=CYLINDRICAL_SURFACE('',#344,45.499999999999986);
#346=CARTESIAN_POINT('',(-9.500000000000014,45.499999999999979,0.0));
#347=VERTEX_POINT('',#346);
#348=CARTESIAN_POINT('',(-9.500000000000007,-1.622634E-015,0.0));
#349=DIRECTION('',(1.0,0.0,0.0));
#350=DIRECTION('',(0.0,1.0,0.0));
#351=AXIS2_PLACEMENT_3D('',#348,#349,#350);
#352=CIRCLE('',#351,45.499999999999979);
#353=EDGE_CURVE('',#347,#347,#352,.T.);
#354=ORIENTED_EDGE('',*,*,#353,.F.);
#355=EDGE_LOOP('',(#354));
#356=FACE_OUTER_BOUND('',#355,.T.);
#357=ORIENTED_EDGE('',*,*,#333,.T.);
#358=EDGE_LOOP('',(#357));
#359=FACE_BOUND('',#358,.T.);
#360=ADVANCED_FACE('',(#356,#359),#345,.T.);
#361=CARTESIAN_POINT('',(-9.500000000000007,0.0,0.0));
#362=DIRECTION('',(1.0,1.708035E-016,0.0));
#363=DIRECTION('',(0.0,0.0,-1.0));
#364=AXIS2_PLACEMENT_3D('',#361,#362,#363);
#365=TOROIDAL_SURFACE('',#364,44.699999999999989,0.799999999999997);
#366=CARTESIAN_POINT('',(-8.748245903371288,44.973616114660530,0.0));
#367=VERTEX_POINT('',#366);
#368=CARTESIAN_POINT('',(-8.748245903371281,-1.494231E-015,0.0));
#369=DIRECTION('',(1.0,0.0,0.0));
#370=DIRECTION('',(0.0,1.0,0.0));
#371=AXIS2_PLACEMENT_3D('',#368,#369,#370);
#372=CIRCLE('',#371,44.973616114660530);
#373=EDGE_CURVE('',#367,#367,#372,.T.);
#374=ORIENTED_EDGE('',*,*,#373,.F.);
#375=EDGE_LOOP('',(#374));
#376=FACE_OUTER_BOUND('',#375,.T.);
#377=ORIENTED_EDGE('',*,*,#353,.T.);
#378=EDGE_LOOP('',(#377));
#379=FACE_BOUND('',#378,.T.);
#380=ADVANCED_FACE('',(#376,#379),#365,.T.);
#381=CARTESIAN_POINT('',(-7.900621757612804,-1.349454E-015,0.0));
#382=DIRECTION('',(-1.0,-1.708035E-016,0.0));
#383=DIRECTION('',(0.0,1.0,0.0));
#384=AXIS2_PLACEMENT_3D('',#381,#382,#383);
#385=CONICAL_SURFACE('',#384,42.644787914004596,70.000000000000057);
#386=CARTESIAN_POINT('',(-7.052997611854335,40.315959713348661,0.0));
#387=VERTEX_POINT('',#386);
#388=CARTESIAN_POINT('',(-7.052997611854329,-1.204677E-015,0.0));
#389=DIRECTION('',(1.0,0.0,0.0));
#390=DIRECTION('',(0.0,1.0,0.0));
#391=AXIS2_PLACEMENT_3D('',#388,#389,#390);
#392=CIRCLE('',#391,40.315959713348661);
#393=EDGE_CURVE('',#387,#387,#392,.T.);
#394=ORIENTED_EDGE('',*,*,#393,.F.);
#395=EDGE_LOOP('',(#394));
#396=FACE_OUTER_BOUND('',#395,.T.);
#397=ORIENTED_EDGE('',*,*,#373,.T.);
#398=EDGE_LOOP('',(#397));
#399=FACE_BOUND('',#398,.T.);
#400=ADVANCED_FACE('',(#396,#399),#385,.T.);
#401=CARTESIAN_POINT('',(-5.173612370282493,-4.775965E-015,38.999999999999993));
#402=CARTESIAN_POINT('',(-7.173612370282514,-5.117572E-015,38.999999999999979));
#403=CARTESIAN_POINT('',(-7.173612370282514,-5.362493E-015,41.0));
#404=CARTESIAN_POINT('',(-7.173612370282515,-5.607414E-015,43.000000000000021));
#405=CARTESIAN_POINT('',(-5.173612370282493,-5.265807E-015,43.000000000000007));
#406=CARTESIAN_POINT('',(-5.173612370282487,-38.999999999999993,38.999999999999979));
#407=CARTESIAN_POINT('',(-7.173612370282508,-38.999999999999979,38.999999999999964));
#408=CARTESIAN_POINT('',(-7.173612370282507,-41.0,40.999999999999986));
#409=CARTESIAN_POINT('',(-7.173612370282507,-43.000000000000021,43.000000000000007));
#410=CARTESIAN_POINT('',(-5.173612370282486,-43.000000000000007,42.999999999999993));
#411=CARTESIAN_POINT('',(-5.173612370282487,-38.999999999999993,-4.775965E-015));
#412=CARTESIAN_POINT('',(-7.173612370282508,-38.999999999999979,-4.775965E-015));
#413=CARTESIAN_POINT('',(-7.173612370282507,-41.0,-5.020886E-015));
#414=CARTESIAN_POINT('',(-7.173612370282507,-43.000000000000021,-5.265807E-015));
#415=CARTESIAN_POINT('',(-5.173612370282486,-43.000000000000007,-5.265807E-015));
#416=CARTESIAN_POINT('',(-5.173612370282487,-38.999999999999979,-38.999999999999993));
#417=CARTESIAN_POINT('',(-7.173612370282508,-38.999999999999964,-38.999999999999979));
#418=CARTESIAN_POINT('',(-7.173612370282507,-40.999999999999986,-41.0));
#419=CARTESIAN_POINT('',(-7.173612370282507,-43.000000000000007,-43.000000000000021));
#420=CARTESIAN_POINT('',(-5.173612370282486,-42.999999999999993,-43.000000000000007));
#421=CARTESIAN_POINT('',(-5.173612370282493,4.775965E-015,-38.999999999999993));
#422=CARTESIAN_POINT('',(-7.173612370282514,4.434358E-015,-38.999999999999979));
#423=CARTESIAN_POINT('',(-7.173612370282514,4.679279E-015,-41.0));
#424=CARTESIAN_POINT('',(-7.173612370282515,4.924200E-015,-43.000000000000021));
#425=CARTESIAN_POINT('',(-5.173612370282493,5.265807E-015,-43.000000000000007));
#426=CARTESIAN_POINT('',(-5.173612370282499,38.999999999999993,-38.999999999999979));
#427=CARTESIAN_POINT('',(-7.173612370282521,38.999999999999979,-38.999999999999964));
#428=CARTESIAN_POINT('',(-7.173612370282521,41.0,-40.999999999999986));
#429=CARTESIAN_POINT('',(-7.173612370282521,43.000000000000021,-43.000000000000007));
#430=CARTESIAN_POINT('',(-5.173612370282500,43.000000000000007,-42.999999999999993));
#431=CARTESIAN_POINT('',(-5.173612370282499,38.999999999999993,4.775965E-015));
#432=CARTESIAN_POINT('',(-7.173612370282521,38.999999999999979,4.775965E-015));
#433=CARTESIAN_POINT('',(-7.173612370282521,41.0,5.020886E-015));
#434=CARTESIAN_POINT('',(-7.173612370282521,43.000000000000021,5.265807E-015));
#435=CARTESIAN_POINT('',(-5.173612370282500,43.000000000000007,5.265807E-015));
#436=CARTESIAN_POINT('',(-5.173612370282499,38.999999999999979,38.999999999999993));
#437=CARTESIAN_POINT('',(-7.173612370282521,38.999999999999964,38.999999999999979));
#438=CARTESIAN_POINT('',(-7.173612370282521,40.999999999999986,41.0));
#439=CARTESIAN_POINT('',(-7.173612370282521,43.000000000000007,43.000000000000021));
#440=CARTESIAN_POINT('',(-5.173612370282500,42.999999999999993,43.000000000000007));
#441=CARTESIAN_POINT('',(-5.173612370282493,-4.775965E-015,38.999999999999993));
#442=CARTESIAN_POINT('',(-7.173612370282514,-5.117572E-015,38.999999999999979));
#443=CARTESIAN_POINT('',(-7.173612370282514,-5.362493E-015,41.0));
#444=CARTESIAN_POINT('',(-7.173612370282515,-5.607414E-015,43.000000000000021));
#445=CARTESIAN_POINT('',(-5.173612370282493,-5.265807E-015,43.000000000000007));
#453=(BOUNDED_SURFACE()B_SPLINE_SURFACE(2,2,((#401,#406,#411,#416,#421,#426,#431,#436,#441),(#402,#407,#412,#417,#422,#427,#432,#437,#442),(#403,#408,#413,#418,#423,#428,#433,#438,#443),(#404,#409,#414,#419,#424,#429,#434,#439,#444),(#405,#410,#415,#420,#425,#430,#435,#440,#445)),.UNSPECIFIED.,.F.,.T.,.U.)B_SPLINE_SURFACE_WITH_KNOTS((3,2,3),(3,2,2,2,3),(-3.141592653589800,-1.570796326794897,6.995768E-015),(0.0,1.570796326794897,3.141592653589793,4.712388980384690,6.283185307179586),.UNSPECIFIED.)GEOMETRIC_REPRESENTATION_ITEM()RATIONAL_B_SPLINE_SURFACE(((1.0,0.707106781186548,1.0,0.707106781186548,1.0,0.707106781186548,1.0,0.707106781186548,1.0),(0.707106781186548,0.500000000000001,0.707106781186548,0.500000000000001,0.707106781186548,0.500000000000001,0.707106781186548,0.500000000000001,0.707106781186548),(1.0,0.707106781186548,1.0,0.707106781186548,1.0,0.707106781186548,1.0,0.707106781186548,1.0),(0.707106781186547,0.499999999999999,0.707106781186547,0.499999999999999,0.707106781186547,0.499999999999999,0.707106781186547,0.499999999999999,0.707106781186547),(1.0,0.707106781186548,1.0,0.707106781186548,1.0,0.707106781186548,1.0,0.707106781186548,1.0)))REPRESENTATION_ITEM('')SURFACE());
#454=CARTESIAN_POINT('',(-5.173612370282514,39.0,0.0));
#455=VERTEX_POINT('',#454);
#456=CARTESIAN_POINT('',(-5.173612370282507,-8.836713E-016,0.0));
#457=DIRECTION('',(1.0,0.0,0.0));
#458=DIRECTION('',(0.0,1.0,0.0));
#459=AXIS2_PLACEMENT_3D('',#456,#457,#458);
#460=CIRCLE('',#459,39.0);
#461=EDGE_CURVE('',#455,#455,#460,.T.);
#462=ORIENTED_EDGE('',*,*,#461,.F.);
#463=EDGE_LOOP('',(#462));
#464=FACE_OUTER_BOUND('',#463,.T.);
#465=ORIENTED_EDGE('',*,*,#393,.T.);
#466=EDGE_LOOP('',(#465));
#467=FACE_BOUND('',#466,.T.);
#468=ADVANCED_FACE('',(#464,#467),#453,.T.);
#469=CARTESIAN_POINT('',(-2.586806185141257,-4.418357E-016,0.0));
#470=DIRECTION('',(1.0,1.708035E-016,0.0));
#471=DIRECTION('',(0.0,1.0,0.0));
#472=AXIS2_PLACEMENT_3D('',#469,#470,#471);
#473=CYLINDRICAL_SURFACE('',#472,39.0);
#474=CARTESIAN_POINT('',(-1.332268E-014,39.0,0.0));
#475=VERTEX_POINT('',#474);
#476=CARTESIAN_POINT('',(-6.661338E-015,-1.137780E-030,0.0));
#477=DIRECTION('',(1.0,0.0,0.0));
#478=DIRECTION('',(0.0,1.0,0.0));
#479=AXIS2_PLACEMENT_3D('',#476,#477,#478);
#480=CIRCLE('',#479,39.0);
#481=EDGE_CURVE('',#475,#475,#480,.T.);
#482=ORIENTED_EDGE('',*,*,#481,.F.);
#483=EDGE_LOOP('',(#482));
#484=FACE_OUTER_BOUND('',#483,.T.);
#485=ORIENTED_EDGE('',*,*,#461,.T.);
#486=EDGE_LOOP('',(#485));
#487=FACE_BOUND('',#486,.T.);
#488=ADVANCED_FACE('',(#484,#487),#473,.T.);
#489=CARTESIAN_POINT('',(-6.661338E-015,19.500000000000000,0.0));
#490=DIRECTION('',(1.0,0.0,0.0));
#491=DIRECTION('',(0.0,0.0,-1.0));
#492=AXIS2_PLACEMENT_3D('',#489,#490,#491);
#493=PLANE('',#492);
#494=ORIENTED_EDGE('',*,*,#481,.T.);
#495=EDGE_LOOP('',(#494));
#496=FACE_OUTER_BOUND('',#495,.T.);
#497=ADVANCED_FACE('',(#496),#493,.T.);
#498=CLOSED_SHELL('',(#84,#104,#172,#192,#212,#280,#300,#320,#340,#360,#380,#400,#468,#488,#497));
#499=MANIFOLD_SOLID_BREP('',#498);
#500=COLOUR_RGB('Metall - Stahl',0.639216005802155,0.639216005802155,0.686275005340576);
#501=FILL_AREA_STYLE_COLOUR('Metall - Stahl',#500);
#502=FILL_AREA_STYLE('Metall - Stahl',(#501));
#503=SURFACE_STYLE_FILL_AREA(#502);
#504=SURFACE_SIDE_STYLE('Metall - Stahl',(#503));
#505=SURFACE_STYLE_USAGE(.BOTH.,#504);
#506=PRESENTATION_STYLE_ASSIGNMENT((#505));
#507=STYLED_ITEM('',(#506),#499);
#508=MECHANICAL_DESIGN_GEOMETRIC_PRESENTATION_REPRESENTATION('',(#507),#36);
#509=ADVANCED_BREP_SHAPE_REPRESENTATION('ABSR',(#499),#36);
#510=SHAPE_REPRESENTATION_RELATIONSHIP('SRR','None',#509,#41);
ENDSEC;
END-ISO-10303-21;
