ISO-10303-21;
HEADER;
/****************************************************************
 * Generated by software with PDE/Lib inside                    *
 * PDElib Version v51a, created Thu 12/14/2006                  *
 * International Technegroup Inc. (www.iti-oh.com)              *
 ****************************************************************/
FILE_DESCRIPTION((''),'2;1');
FILE_NAME('T:\\Arbeitspl\S\dtze\\Aushilfe\\KPeters\\3D\\Steps 08_10\\47220\\47220015X.stp','2010-08-17T10:28:40',('thilbrands'),(''),'Autodesk Inventor 2008','Autodesk Inventor 2008','');
FILE_SCHEMA(('AUTOMOTIVE_DESIGN { 1 0 10303 214 1 1 1 1 }'));
ENDSEC;
DATA;
#5=APPLICATION_CONTEXT('automotive design');
#6=APPLICATION_PROTOCOL_DEFINITION('International Standard','automotive_design',2001,#5);
#7=PRODUCT_CONTEXT('',#5,'mechanical');
#8=PRODUCT('472200101','472200101',$,(#7));
#9=PRODUCT_RELATED_PRODUCT_CATEGORY('part',$,(#8));
#10=PRODUCT_DEFINITION_FORMATION('',$,#8);
#11=PRODUCT_DEFINITION_CONTEXT('part definition',#5,'design');
#12=PRODUCT_DEFINITION('',$,#10,#11);
#18=(NAMED_UNIT(*)PLANE_ANGLE_UNIT()SI_UNIT($,.RADIAN.));
#19=DIMENSIONAL_EXPONENTS(0.0,0.0,0.0,0.0,0.0,0.0,0.0);
#20=PLANE_ANGLE_MEASURE_WITH_UNIT(PLANE_ANGLE_MEASURE(0.017453292500000),#18);
#24=(CONVERSION_BASED_UNIT('DEGREE',#20)NAMED_UNIT(#19)PLANE_ANGLE_UNIT());
#28=(NAMED_UNIT(*)SI_UNIT($,.STERADIAN.)SOLID_ANGLE_UNIT());
#32=(LENGTH_UNIT()NAMED_UNIT(*)SI_UNIT(.MILLI.,.METRE.));
#34=UNCERTAINTY_MEASURE_WITH_UNIT(LENGTH_MEASURE(0.010000000000000),#32,'DISTANCE_ACCURACY_VALUE','');
#36=(GEOMETRIC_REPRESENTATION_CONTEXT(3)GLOBAL_UNCERTAINTY_ASSIGNED_CONTEXT((#34))GLOBAL_UNIT_ASSIGNED_CONTEXT((#24,#28,#32))REPRESENTATION_CONTEXT('None','None'));
#37=AXIS2_PLACEMENT_3D('',#38,#39,#40);
#38=CARTESIAN_POINT('',(0.0,0.0,0.0));
#39=DIRECTION('',(0.0,0.0,1.0));
#40=DIRECTION('',(1.0,0.0,0.0));
#41=SHAPE_REPRESENTATION('',(#37),#36);
#42=PRODUCT_DEFINITION_SHAPE('','',#12);
#43=SHAPE_DEFINITION_REPRESENTATION(#42,#41);
#49=(NAMED_UNIT(*)PLANE_ANGLE_UNIT()SI_UNIT($,.RADIAN.));
#50=DIMENSIONAL_EXPONENTS(0.0,0.0,0.0,0.0,0.0,0.0,0.0);
#51=PLANE_ANGLE_MEASURE_WITH_UNIT(PLANE_ANGLE_MEASURE(0.017453292500000),#49);
#55=(CONVERSION_BASED_UNIT('DEGREE',#51)NAMED_UNIT(#50)PLANE_ANGLE_UNIT());
#59=(NAMED_UNIT(*)SI_UNIT($,.STERADIAN.)SOLID_ANGLE_UNIT());
#63=(LENGTH_UNIT()NAMED_UNIT(*)SI_UNIT(.MILLI.,.METRE.));
#65=UNCERTAINTY_MEASURE_WITH_UNIT(LENGTH_MEASURE(0.000001000000000),#63,'DISTANCE_ACCURACY_VALUE','');
#67=(GEOMETRIC_REPRESENTATION_CONTEXT(3)GLOBAL_UNCERTAINTY_ASSIGNED_CONTEXT((#65))GLOBAL_UNIT_ASSIGNED_CONTEXT((#55,#59,#63))REPRESENTATION_CONTEXT('','3D'));
#68=CARTESIAN_POINT('',(0.0,0.0,-70.0));
#69=DIRECTION('',(0.0,0.0,1.0));
#70=DIRECTION('',(1.0,0.0,0.0));
#71=AXIS2_PLACEMENT_3D('',#68,#69,#70);
#72=CYLINDRICAL_SURFACE('',#71,8.0);
#73=CARTESIAN_POINT('',(-4.898425E-016,8.0,-2.297831E-015));
#74=VERTEX_POINT('',#73);
#75=CARTESIAN_POINT('',(-4.898425E-016,-8.0,-2.297831E-015));
#76=VERTEX_POINT('',#75);
#77=CARTESIAN_POINT('',(-4.898425E-016,8.0,-2.297831E-015));
#78=CARTESIAN_POINT('',(-4.967842E-016,8.0,-0.054709096129608));
#79=CARTESIAN_POINT('',(0.000064137498040,8.000000000771296,-0.109418099192699));
#80=CARTESIAN_POINT('',(0.000192412040750,7.999999997686100,-0.164127044941639));
#81=CARTESIAN_POINT('',(0.008194052653185,7.999999805234600,-3.576817614103683));
#82=CARTESIAN_POINT('',(0.265444100580269,8.006405317417215,-6.782585624325093));
#83=CARTESIAN_POINT('',(0.679856186737191,7.971059877165342,-9.756016919993904));
#84=CARTESIAN_POINT('',(1.065718332117720,7.938149477443451,-12.524600697383828));
#85=CARTESIAN_POINT('',(1.587606518640516,7.864347674904171,-15.091891786378337));
#86=CARTESIAN_POINT('',(2.171818317084809,7.699558766421289,-17.437160445206477));
#87=CARTESIAN_POINT('',(2.661538119570489,7.561423261577041,-19.403099009671617));
#88=CARTESIAN_POINT('',(3.193082908137037,7.359799297715293,-21.206077439578682));
#89=CARTESIAN_POINT('',(3.725824323204519,7.079423218922401,-22.838901139254332));
#90=CARTESIAN_POINT('',(4.264028987994298,6.796171890540719,-24.488469404626425));
#91=CARTESIAN_POINT('',(4.804020272471533,6.433065624005174,-25.966664384011548));
#92=CARTESIAN_POINT('',(5.312722879632386,5.981218571848931,-27.272352358176484));
#93=CARTESIAN_POINT('',(5.599178244039775,5.726779121058199,-28.007597900811369));
#94=CARTESIAN_POINT('',(5.877615199420731,5.441610877312861,-28.692103470666456));
#95=CARTESIAN_POINT('',(6.132462050189130,5.137402962878244,-29.300933210846345));
#96=CARTESIAN_POINT('',(6.782877774175049,4.361008786090662,-30.854777941708392));
#97=CARTESIAN_POINT('',(7.288015922393310,3.452359584335222,-31.949675250449058));
#98=CARTESIAN_POINT('',(7.603980528617589,2.485856013610722,-32.627553907801037));
#99=CARTESIAN_POINT('',(7.705318921111716,2.175872185461529,-32.844967922183919));
#100=CARTESIAN_POINT('',(7.787233890670250,1.861865639803838,-33.018638903566831));
#101=CARTESIAN_POINT('',(7.850367258841954,1.540043473835165,-33.151944380954099));
#102=CARTESIAN_POINT('',(7.922228195484622,1.173732552232117,-33.303678032144603));
#103=CARTESIAN_POINT('',(7.971024011744608,0.789086653116820,-33.405763327657084));
#104=CARTESIAN_POINT('',(7.990502270436569,0.389709463765046,-33.446529234901490));
#105=CARTESIAN_POINT('',(8.004174327497442,0.109381134216708,-33.475143384595157));
#106=CARTESIAN_POINT('',(8.002917992748280,-0.174072756609594,-33.472519950647708));
#107=CARTESIAN_POINT('',(7.987270777296125,-0.451115872200664,-33.439765382272910));
#108=CARTESIAN_POINT('',(7.961734415215149,-0.903252121836106,-33.386309703824402));
#109=CARTESIAN_POINT('',(7.896644569799181,-1.348230423796167,-33.250082570648551));
#110=CARTESIAN_POINT('',(7.804892740759185,-1.756032262017011,-33.055785933876784));
#111=CARTESIAN_POINT('',(7.689966071872319,-2.266837412421501,-32.812413507694778));
#112=CARTESIAN_POINT('',(7.534760380350129,-2.724963432251841,-32.480933070899610));
#113=CARTESIAN_POINT('',(7.360402853270353,-3.134401033302801,-32.100722724852318));
#114=CARTESIAN_POINT('',(7.210423866926814,-3.486591371196596,-31.773673108741345));
#115=CARTESIAN_POINT('',(7.045608540770292,-3.803715780949353,-31.409072083568759));
#116=CARTESIAN_POINT('',(6.877042086421011,-4.087333133180382,-31.028791341251786));
#117=CARTESIAN_POINT('',(6.786868080595395,-4.239053194393354,-30.825361554433073));
#118=CARTESIAN_POINT('',(6.695691693739523,-4.381433129352169,-30.617746558288811));
#119=CARTESIAN_POINT('',(6.599019227464819,-4.522493254339871,-30.395109669897145));
#120=CARTESIAN_POINT('',(6.266245135911308,-5.008062276793680,-29.628730253545967));
#121=CARTESIAN_POINT('',(5.881884666214186,-5.453495483236902,-28.716198130467848));
#122=CARTESIAN_POINT('',(5.457296564769143,-5.849608038506419,-27.640939185702070));
#123=CARTESIAN_POINT('',(5.271033878310852,-6.023378778744435,-27.169233504339953));
#124=CARTESIAN_POINT('',(5.078110197607481,-6.186554956548433,-26.668488127695952));
#125=CARTESIAN_POINT('',(4.883010346632821,-6.336892768121994,-26.146155521005284));
#126=CARTESIAN_POINT('',(4.228776112403361,-6.841025101074602,-24.394601784576601));
#127=CARTESIAN_POINT('',(3.539017710479556,-7.209068927339887,-22.376236940241036));
#128=CARTESIAN_POINT('',(2.882499579922812,-7.462653427015409,-20.088552491137680));
#129=CARTESIAN_POINT('',(2.545309232620457,-7.592895444008256,-18.913588574669443));
#130=CARTESIAN_POINT('',(2.218380892903820,-7.692644164333744,-17.670941046614512));
#131=CARTESIAN_POINT('',(1.914445830580549,-7.767554129954471,-16.371390175586093));
#132=CARTESIAN_POINT('',(1.197046734835646,-7.944369339058026,-13.303969744972271));
#133=CARTESIAN_POINT('',(0.603811253426367,-7.983915852226993,-9.906715500572595));
#134=CARTESIAN_POINT('',(0.276134143317265,-7.995232950633423,-6.217618520335570));
#135=CARTESIAN_POINT('',(0.103902647677411,-8.001181369746965,-4.278579536943848));
#136=CARTESIAN_POINT('',(0.005103934462141,-7.999999879556594,-2.258885740027742));
#137=CARTESIAN_POINT('',(0.000192412040754,-7.999999997686100,-0.164127044941636));
#138=CARTESIAN_POINT('',(0.000064137498050,-8.000000000771296,-0.109418099194341));
#139=CARTESIAN_POINT('',(-4.967842E-016,-8.0,-0.054709096127967));
#140=CARTESIAN_POINT('',(-4.898425E-016,-8.0,-2.297831E-015));
#141=B_SPLINE_CURVE_WITH_KNOTS('',3,(#77,#78,#79,#80,#81,#82,#83,#84,#85,#86,#87,#88,#89,#90,#91,#92,#93,#94,#95,#96,#97,#98,#99,#100,#101,#102,#103,#104,#105,#106,#107,#108,#109,#110,#111,#112,#113,#114,#115,#116,#117,#118,#119,#120,#121,#122,#123,#124,#125,#126,#127,#128,#129,#130,#131,#132,#133,#134,#135,#136,#137,#138,#139,#140),.UNSPECIFIED.,.F.,.U.,(4,3,3,3,3,3,3,3,3,3,3,3,3,3,3,3,3,3,3,3,3,4),(-9.994242490517580,-9.982811921550871,-9.269784200419906,-8.605878838144344,-8.049355324328705,-7.487124675970279,-7.170527153194874,-6.362512432325318,-6.103360263659980,-5.808382851356848,-5.601334157915836,-5.263429281468672,-4.840175791516203,-4.476101292109064,-4.281340975430209,-3.610920638068454,-3.316813731472915,-2.330576141557387,-1.824040556341722,-0.628429335909951,0.0,0.016412728838389),.UNSPECIFIED.);
#142=EDGE_CURVE('',#74,#76,#141,.T.);
#143=ORIENTED_EDGE('',*,*,#142,.F.);
#144=CARTESIAN_POINT('',(0.0,0.0,-2.452459E-015));
#145=DIRECTION('',(0.0,0.0,-1.0));
#146=DIRECTION('',(-1.0,0.0,0.0));
#147=AXIS2_PLACEMENT_3D('',#144,#145,#146);
#148=CIRCLE('',#147,8.0);
#149=EDGE_CURVE('',#76,#74,#148,.T.);
#150=ORIENTED_EDGE('',*,*,#149,.F.);
#151=EDGE_LOOP('',(#143,#150));
#152=FACE_OUTER_BOUND('',#151,.T.);
#153=CARTESIAN_POINT('',(-8.0,9.797174E-016,-70.0));
#154=VERTEX_POINT('',#153);
#155=CARTESIAN_POINT('',(0.0,0.0,-70.0));
#156=DIRECTION('',(0.0,0.0,1.0));
#157=DIRECTION('',(1.0,0.0,0.0));
#158=AXIS2_PLACEMENT_3D('',#155,#156,#157);
#159=CIRCLE('',#158,8.0);
#160=EDGE_CURVE('',#154,#154,#159,.T.);
#161=ORIENTED_EDGE('',*,*,#160,.F.);
#162=EDGE_LOOP('',(#161));
#163=FACE_BOUND('',#162,.T.);
#164=ADVANCED_FACE('',(#152,#163),#72,.F.);
#165=CARTESIAN_POINT('',(35.0,0.0,-4.440892E-015));
#166=DIRECTION('',(0.0,1.0,0.0));
#167=DIRECTION('',(0.0,0.0,1.0));
#168=AXIS2_PLACEMENT_3D('',#165,#166,#167);
#169=TOROIDAL_SURFACE('',#168,35.0,8.0);
#170=CARTESIAN_POINT('',(34.999999999999993,9.797174E-016,-27.0));
#171=VERTEX_POINT('',#170);
#172=CARTESIAN_POINT('',(35.0,0.0,-35.000000000000007));
#173=DIRECTION('',(-1.0,0.0,0.0));
#174=DIRECTION('',(0.0,0.0,-1.0));
#175=AXIS2_PLACEMENT_3D('',#172,#173,#174);
#176=CIRCLE('',#175,8.0);
#177=EDGE_CURVE('',#171,#171,#176,.T.);
#178=ORIENTED_EDGE('',*,*,#177,.F.);
#179=EDGE_LOOP('',(#178));
#180=FACE_OUTER_BOUND('',#179,.T.);
#181=ORIENTED_EDGE('',*,*,#142,.T.);
#182=CARTESIAN_POINT('',(0.0,0.0,-2.452459E-015));
#183=DIRECTION('',(0.0,0.0,-1.0));
#184=DIRECTION('',(-1.0,0.0,0.0));
#185=AXIS2_PLACEMENT_3D('',#182,#183,#184);
#186=CIRCLE('',#185,8.0);
#187=EDGE_CURVE('',#74,#76,#186,.T.);
#188=ORIENTED_EDGE('',*,*,#187,.F.);
#189=EDGE_LOOP('',(#181,#188));
#190=FACE_BOUND('',#189,.T.);
#191=ADVANCED_FACE('',(#180,#190),#169,.F.);
#192=CARTESIAN_POINT('',(0.0,0.0,-70.0));
#193=DIRECTION('',(0.0,0.0,1.0));
#194=DIRECTION('',(-1.0,0.0,0.0));
#195=AXIS2_PLACEMENT_3D('',#192,#193,#194);
#196=CYLINDRICAL_SURFACE('',#195,9.500000000000000);
#197=CARTESIAN_POINT('',(9.500000000000000,1.163414E-015,-70.0));
#198=VERTEX_POINT('',#197);
#199=CARTESIAN_POINT('',(0.0,0.0,-70.0));
#200=DIRECTION('',(0.0,0.0,-1.0));
#201=DIRECTION('',(-1.0,0.0,0.0));
#202=AXIS2_PLACEMENT_3D('',#199,#200,#201);
#203=CIRCLE('',#202,9.500000000000000);
#204=EDGE_CURVE('',#198,#198,#203,.T.);
#205=ORIENTED_EDGE('',*,*,#204,.F.);
#206=EDGE_LOOP('',(#205));
#207=FACE_OUTER_BOUND('',#206,.T.);
#208=CARTESIAN_POINT('',(-5.816880E-016,-9.500000000000002,-2.297831E-015));
#209=VERTEX_POINT('',#208);
#210=CARTESIAN_POINT('',(-5.816880E-016,9.500000000000002,-2.297831E-015));
#211=VERTEX_POINT('',#210);
#212=CARTESIAN_POINT('',(-5.816880E-016,-9.500000000000002,-2.297831E-015));
#213=CARTESIAN_POINT('',(-5.889055E-016,-9.500000000000002,-0.056883436651555));
#214=CARTESIAN_POINT('',(0.000069336809322,-9.500000000759089,-0.113766722021383));
#215=CARTESIAN_POINT('',(0.000208010102889,-9.499999997722727,-0.170649989640331));
#216=CARTESIAN_POINT('',(0.008199663052225,-9.499999822739090,-3.448796211856123));
#217=CARTESIAN_POINT('',(0.246238297174639,-9.505212285424259,-6.565049348600330));
#218=CARTESIAN_POINT('',(0.644933546059593,-9.478083177582215,-9.502141676924591));
#219=CARTESIAN_POINT('',(1.084853697260489,-9.448148932674117,-12.742927978695240));
#220=CARTESIAN_POINT('',(1.720138371872464,-9.374086798170387,-15.765765265425493));
#221=CARTESIAN_POINT('',(2.457304657853872,-9.176690787995945,-18.547847640617022));
#222=CARTESIAN_POINT('',(2.908433796318377,-9.055888882510304,-20.250419297684221));
#223=CARTESIAN_POINT('',(3.397717278568579,-8.888997406661581,-21.862771638004038));
#224=CARTESIAN_POINT('',(3.904281966245388,-8.660634060393676,-23.379466958730145));
#225=CARTESIAN_POINT('',(4.171160595726904,-8.540323074732010,-24.178522989249704));
#226=CARTESIAN_POINT('',(4.441339696852796,-8.403538135644563,-24.946340370321050));
#227=CARTESIAN_POINT('',(4.708962599011343,-8.250798218421799,-25.675956922023154));
#228=CARTESIAN_POINT('',(5.338314206771587,-7.891609555202071,-27.391749352934653));
#229=CARTESIAN_POINT('',(5.957066749239858,-7.442137625540679,-28.909310821995067));
#230=CARTESIAN_POINT('',(6.529917245080144,-6.900013099437199,-30.235548850834846));
#231=CARTESIAN_POINT('',(6.688649916884259,-6.749794368540025,-30.603039683599444));
#232=CARTESIAN_POINT('',(6.842998610249842,-6.593734910344565,-30.953887329516306));
#233=CARTESIAN_POINT('',(7.000056799582778,-6.422554383001744,-31.305078692467610));
#234=CARTESIAN_POINT('',(7.331158641867657,-6.061680567970315,-32.045441915560808));
#235=CARTESIAN_POINT('',(7.666379308713189,-5.640731118760543,-32.767861145937708));
#236=CARTESIAN_POINT('',(7.983036370232615,-5.149867018821292,-33.430900254593304));
#237=CARTESIAN_POINT('',(8.184078181024137,-4.838223226540714,-33.851855916816994));
#238=CARTESIAN_POINT('',(8.377426096706357,-4.499465107628396,-34.248728762278752));
#239=CARTESIAN_POINT('',(8.559644832589742,-4.120980507102617,-34.617196255077680));
#240=CARTESIAN_POINT('',(8.853383793531393,-3.510858431829264,-35.211170623030704));
#241=CARTESIAN_POINT('',(9.114857496202532,-2.800503773701455,-35.723834242519757));
#242=CARTESIAN_POINT('',(9.287470178337641,-1.998223632752103,-36.058921572438493));
#243=CARTESIAN_POINT('',(9.361517579105348,-1.654061440322055,-36.202667359270379));
#244=CARTESIAN_POINT('',(9.419286485948486,-1.291372771535395,-36.313977604129143));
#245=CARTESIAN_POINT('',(9.455526598226964,-0.918159436166955,-36.383701347605843));
#246=CARTESIAN_POINT('',(9.496431710995296,-0.496904296210950,-36.462400264640891));
#247=CARTESIAN_POINT('',(9.509421696553602,-0.069976579544750,-36.487258111078390));
#248=CARTESIAN_POINT('',(9.493226947092342,0.358667159076268,-36.456162340445658));
#249=CARTESIAN_POINT('',(9.480280404717373,0.701337129926860,-36.431303498810472));
#250=CARTESIAN_POINT('',(9.448593830487564,1.040515053282044,-36.370475705014989));
#251=CARTESIAN_POINT('',(9.401187592187895,1.366627914427470,-36.279005814745062));
#252=CARTESIAN_POINT('',(9.351062818549028,1.711441886848313,-36.182290536144606));
#253=CARTESIAN_POINT('',(9.283768894377340,2.042534619573753,-36.052096106586269));
#254=CARTESIAN_POINT('',(9.201112497754881,2.364218433998631,-35.890886721919870));
#255=CARTESIAN_POINT('',(8.927538398111246,3.428919576285106,-35.357319882977471));
#256=CARTESIAN_POINT('',(8.465457607773599,4.447696391227427,-34.450778687518699));
#257=CARTESIAN_POINT('',(7.849435161843478,5.351295884177519,-33.149976209012387));
#258=CARTESIAN_POINT('',(7.449000780434099,5.938664585418550,-32.304412805831539));
#259=CARTESIAN_POINT('',(6.984132955195955,6.477738735360394,-31.292111979762922));
#260=CARTESIAN_POINT('',(6.472126679424366,6.954248790881970,-30.101457358729519));
#261=CARTESIAN_POINT('',(6.240423507467202,7.169888513593274,-29.562638860883673));
#262=CARTESIAN_POINT('',(6.002285862976790,7.369822297464794,-28.994348621270262));
#263=CARTESIAN_POINT('',(5.761490952450579,7.553490716538290,-28.400857968432600));
#264=CARTESIAN_POINT('',(4.843377884569869,8.253789470111869,-26.137971585807009));
#265=CARTESIAN_POINT('',(3.876192111286825,8.723099083463564,-23.490535051586530));
#266=CARTESIAN_POINT('',(2.992294721856064,9.016439003151541,-20.467566075619487));
#267=CARTESIAN_POINT('',(2.332300260734328,9.235472031798274,-18.210355222710433));
#268=CARTESIAN_POINT('',(1.718424892010379,9.356836373606118,-15.739540274873576));
#269=CARTESIAN_POINT('',(1.219227803411563,9.421437446769373,-13.064910733626176));
#270=CARTESIAN_POINT('',(0.650743201216084,9.495005014003581,-10.019048196558664));
#271=CARTESIAN_POINT('',(0.232324185947626,9.498513852231413,-6.712370156311426));
#272=CARTESIAN_POINT('',(0.071892099619745,9.499727971158556,-3.172521701546874));
#273=CARTESIAN_POINT('',(0.027347457018518,9.500065076378110,-2.189667910331241));
#274=CARTESIAN_POINT('',(0.002690222107820,9.499999943372709,-1.188844092694295));
#275=CARTESIAN_POINT('',(0.000208010102887,9.499999997722727,-0.170649989640331));
#276=CARTESIAN_POINT('',(0.000069336809312,9.500000000759089,-0.113766722019384));
#277=CARTESIAN_POINT('',(-5.889055E-016,9.500000000000002,-0.056883436653554));
#278=CARTESIAN_POINT('',(-5.816880E-016,9.500000000000002,-2.297831E-015));
#279=B_SPLINE_CURVE_WITH_KNOTS('',3,(#212,#213,#214,#215,#216,#217,#218,#219,#220,#221,#222,#223,#224,#225,#226,#227,#228,#229,#230,#231,#232,#233,#234,#235,#236,#237,#238,#239,#240,#241,#242,#243,#244,#245,#246,#247,#248,#249,#250,#251,#252,#253,#254,#255,#256,#257,#258,#259,#260,#261,#262,#263,#264,#265,#266,#267,#268,#269,#270,#271,#272,#273,#274,#275,#276,#277,#278),.UNSPECIFIED.,.F.,.U.,(4,3,3,3,3,3,3,3,3,3,3,3,3,3,3,3,3,3,3,3,3,3,4),(-16.760619596821773,-16.731076876707576,-15.028548868206279,-13.149980259680493,-12.000338646889649,-11.394661256656144,-9.970328599574126,-9.575656464631054,-8.743629357141955,-8.215385219731555,-7.363848832464818,-6.998556691955280,-6.586242400925832,-6.256626653958717,-5.908108920910738,-4.754593537655636,-4.004771478424444,-3.665447220600650,-2.371657270156341,-1.405601468477681,-0.305459138606668,0.0,0.017065030996065),.UNSPECIFIED.);
#280=EDGE_CURVE('',#209,#211,#279,.T.);
#281=ORIENTED_EDGE('',*,*,#280,.F.);
#282=CARTESIAN_POINT('',(0.0,0.0,0.0));
#283=DIRECTION('',(0.0,0.0,-1.0));
#284=DIRECTION('',(-1.0,0.0,0.0));
#285=AXIS2_PLACEMENT_3D('',#282,#283,#284);
#286=CIRCLE('',#285,9.500000000000002);
#287=EDGE_CURVE('',#209,#211,#286,.T.);
#288=ORIENTED_EDGE('',*,*,#287,.T.);
#289=EDGE_LOOP('',(#281,#288));
#290=FACE_BOUND('',#289,.T.);
#291=ADVANCED_FACE('',(#207,#290),#196,.T.);
#292=CARTESIAN_POINT('',(0.0,0.0,-70.0));
#293=DIRECTION('',(0.0,0.0,-1.0));
#294=DIRECTION('',(-1.0,0.0,0.0));
#295=AXIS2_PLACEMENT_3D('',#292,#293,#294);
#296=PLANE('',#295);
#297=ORIENTED_EDGE('',*,*,#204,.T.);
#298=EDGE_LOOP('',(#297));
#299=FACE_OUTER_BOUND('',#298,.T.);
#300=ORIENTED_EDGE('',*,*,#160,.T.);
#301=EDGE_LOOP('',(#300));
#302=FACE_BOUND('',#301,.T.);
#303=ADVANCED_FACE('',(#299,#302),#296,.T.);
#304=CARTESIAN_POINT('',(35.0,0.0,-4.440892E-015));
#305=DIRECTION('',(0.0,1.0,0.0));
#306=DIRECTION('',(0.0,0.0,1.0));
#307=AXIS2_PLACEMENT_3D('',#304,#305,#306);
#308=TOROIDAL_SURFACE('',#307,35.0,9.500000000000002);
#309=CARTESIAN_POINT('',(34.999999999999993,1.163414E-015,-25.500000000000004));
#310=VERTEX_POINT('',#309);
#311=CARTESIAN_POINT('',(34.999999999999993,0.0,-35.000000000000007));
#312=DIRECTION('',(1.0,0.0,0.0));
#313=DIRECTION('',(0.0,0.0,-1.0));
#314=AXIS2_PLACEMENT_3D('',#311,#312,#313);
#315=CIRCLE('',#314,9.500000000000002);
#316=EDGE_CURVE('',#310,#310,#315,.T.);
#317=ORIENTED_EDGE('',*,*,#316,.F.);
#318=EDGE_LOOP('',(#317));
#319=FACE_OUTER_BOUND('',#318,.T.);
#320=ORIENTED_EDGE('',*,*,#280,.T.);
#321=CARTESIAN_POINT('',(0.0,0.0,0.0));
#322=DIRECTION('',(0.0,0.0,-1.0));
#323=DIRECTION('',(-1.0,0.0,0.0));
#324=AXIS2_PLACEMENT_3D('',#321,#322,#323);
#325=CIRCLE('',#324,9.500000000000002);
#326=EDGE_CURVE('',#211,#209,#325,.T.);
#327=ORIENTED_EDGE('',*,*,#326,.T.);
#328=EDGE_LOOP('',(#320,#327));
#329=FACE_BOUND('',#328,.T.);
#330=ADVANCED_FACE('',(#319,#329),#308,.T.);
#331=CARTESIAN_POINT('',(34.999999999999993,0.0,-35.000000000000007));
#332=DIRECTION('',(1.0,0.0,0.0));
#333=DIRECTION('',(0.0,0.0,-1.0));
#334=AXIS2_PLACEMENT_3D('',#331,#332,#333);
#335=PLANE('',#334);
#336=ORIENTED_EDGE('',*,*,#316,.T.);
#337=EDGE_LOOP('',(#336));
#338=FACE_OUTER_BOUND('',#337,.T.);
#339=ORIENTED_EDGE('',*,*,#177,.T.);
#340=EDGE_LOOP('',(#339));
#341=FACE_BOUND('',#340,.T.);
#342=ADVANCED_FACE('',(#338,#341),#335,.T.);
#343=CARTESIAN_POINT('',(0.0,0.0,0.0));
#344=DIRECTION('',(0.0,0.0,-1.0));
#345=DIRECTION('',(-1.0,0.0,0.0));
#346=AXIS2_PLACEMENT_3D('',#343,#344,#345);
#347=PLANE('',#346);
#348=ORIENTED_EDGE('',*,*,#326,.F.);
#349=ORIENTED_EDGE('',*,*,#287,.F.);
#350=EDGE_LOOP('',(#348,#349));
#351=FACE_OUTER_BOUND('',#350,.T.);
#352=ORIENTED_EDGE('',*,*,#187,.T.);
#353=ORIENTED_EDGE('',*,*,#149,.T.);
#354=EDGE_LOOP('',(#352,#353));
#355=FACE_BOUND('',#354,.T.);
#356=ADVANCED_FACE('',(#351,#355),#347,.F.);
#357=CLOSED_SHELL('',(#164,#191,#291,#303,#330,#342,#356));
#358=MANIFOLD_SOLID_BREP('',#357);
#359=COLOUR_RGB('Metall - Stahl',0.639216005802155,0.639216005802155,0.686275005340576);
#360=FILL_AREA_STYLE_COLOUR('Metall - Stahl',#359);
#361=FILL_AREA_STYLE('Metall - Stahl',(#360));
#362=SURFACE_STYLE_FILL_AREA(#361);
#363=SURFACE_SIDE_STYLE('Metall - Stahl',(#362));
#364=SURFACE_STYLE_USAGE(.BOTH.,#363);
#365=PRESENTATION_STYLE_ASSIGNMENT((#364));
#366=STYLED_ITEM('',(#365),#358);
#367=MECHANICAL_DESIGN_GEOMETRIC_PRESENTATION_REPRESENTATION('',(#366),#36);
#368=ADVANCED_BREP_SHAPE_REPRESENTATION('ABSR',(#358),#36);
#369=SHAPE_REPRESENTATION_RELATIONSHIP('SRR','None',#368,#41);
ENDSEC;
END-ISO-10303-21;
