ISO-10303-21;
HEADER;
FILE_DESCRIPTION (( 'STEP AP214' ),
    '1' );
FILE_NAME ('DT30 50.8.STEP',
    '2014-02-12T08:48:55',
    ( '' ),
    ( '' ),
    'SwSTEP 2.0',
    'SolidWorks 2013',
    '' );
FILE_SCHEMA (( 'AUTOMOTIVE_DESIGN' ));
ENDSEC;

DATA;
#1 = EDGE_CURVE ( 'NONE', #132, #228, #357, .T. ) ;
#2 = VERTEX_POINT ( 'NONE', #375 ) ;
#3 = CARTESIAN_POINT ( 'NONE',  ( 0.0000000000000000000, 9.999999999999976900, 25.40000000000000600 ) ) ;
#4 = UNCERTAINTY_MEASURE_WITH_UNIT (LENGTH_MEASURE( 1.000000000000000100E-005 ), #21, 'distance_accuracy_value', 'NONE');
#5 = AXIS2_PLACEMENT_3D ( 'NONE', #229, #18, #281 ) ;
#6 = DIRECTION ( 'NONE',  ( 0.0000000000000000000, 0.0000000000000000000, 1.000000000000000000 ) ) ;
#7 = COLOUR_RGB ( '',0.7921568627450980000, 0.8196078431372548800, 0.9333333333333333500 ) ;
#8 = EDGE_LOOP ( 'NONE', ( #125, #114, #366, #89 ) ) ;
#9 = EDGE_CURVE ( 'NONE', #219, #176, #215, .T. ) ;
#10 = DIRECTION ( 'NONE',  ( 0.0000000000000000000, 0.0000000000000000000, 1.000000000000000000 ) ) ;
#11 = DIRECTION ( 'NONE',  ( 0.0000000000000000000, 0.0000000000000000000, 1.000000000000000000 ) ) ;
#12 = DIRECTION ( 'NONE',  ( 0.0000000000000000000, 0.0000000000000000000, 1.000000000000000000 ) ) ;
#13 = VERTEX_POINT ( 'NONE', #291 ) ;
#14 = PRODUCT_RELATED_PRODUCT_CATEGORY ( 'part', '', ( #367 ) ) ;
#15 = DIRECTION ( 'NONE',  ( 0.0000000000000000000, 0.0000000000000000000, 1.000000000000000000 ) ) ;
#16 = CIRCLE ( 'NONE', #141, 6.798357588300802100 ) ;
#17 = UNCERTAINTY_MEASURE_WITH_UNIT (LENGTH_MEASURE( 1.000000000000000100E-005 ), #40, 'distance_accuracy_value', 'NONE');
#18 = DIRECTION ( 'NONE',  ( -0.0000000000000000000, 1.000000000000000000, -0.0000000000000000000 ) ) ;
#19 = ORIENTED_EDGE ( 'NONE', *, *, #113, .F. ) ;
#20 = DIRECTION ( 'NONE',  ( -0.0000000000000000000, 1.000000000000000000, -0.0000000000000000000 ) ) ;
#21 =( LENGTH_UNIT ( ) NAMED_UNIT ( * ) SI_UNIT ( .MILLI., .METRE. ) );
#22 = PRESENTATION_LAYER_ASSIGNMENT (  '', '', ( #324 ) ) ;
#23 = CYLINDRICAL_SURFACE ( 'NONE', #126, 25.40000000000000200 ) ;
#24 = CARTESIAN_POINT ( 'NONE',  ( 0.0000000000000000000, 10.00000000000000000, 0.0000000000000000000 ) ) ;
#25 =( NAMED_UNIT ( * ) SI_UNIT ( $, .STERADIAN. ) SOLID_ANGLE_UNIT ( ) );
#26 = CIRCLE ( 'NONE', #57, 67.30245859272898200 ) ;
#27 = ORIENTED_EDGE ( 'NONE', *, *, #248, .T. ) ;
#28 = VERTEX_POINT ( 'NONE', #69 ) ;
#29 = EDGE_CURVE ( 'NONE', #258, #78, #326, .T. ) ;
#30 = CIRCLE ( 'NONE', #104, 65.65245859272899100 ) ;
#31 = ORIENTED_EDGE ( 'NONE', *, *, #340, .T. ) ;
#32 = CARTESIAN_POINT ( 'NONE',  ( 0.0000000000000000000, 52.43771629541815600, 0.0000000000000000000 ) ) ;
#33 = ADVANCED_FACE ( 'NONE', ( #246 ), #296, .T. ) ;
#34 = DIRECTION ( 'NONE',  ( 0.0000000000000000000, 0.0000000000000000000, 1.000000000000000000 ) ) ;
#35 = AXIS2_PLACEMENT_3D ( 'NONE', #157, #66, #61 ) ;
#36 = CARTESIAN_POINT ( 'NONE',  ( 5.366800753803246900E-015, 57.10000000000000100, 0.0000000000000000000 ) ) ;
#37 = FACE_OUTER_BOUND ( 'NONE', #359, .T. ) ;
#38 = ORIENTED_EDGE ( 'NONE', *, *, #298, .F. ) ;
#39 = CARTESIAN_POINT ( 'NONE',  ( 0.0000000000000000000, 48.09999999999998700, 0.0000000000000000000 ) ) ;
#40 =( LENGTH_UNIT ( ) NAMED_UNIT ( * ) SI_UNIT ( .MILLI., .METRE. ) );
#41 = CYLINDRICAL_SURFACE ( 'NONE', #46, 23.75000000000000400 ) ;
#42 = VECTOR ( 'NONE', #20, 1000.000000000000000 ) ;
#43 = EDGE_LOOP ( 'NONE', ( #311, #100, #143 ) ) ;
#44 = DIRECTION ( 'NONE',  ( -0.0000000000000000000, 1.000000000000000000, -0.0000000000000000000 ) ) ;
#45 = PRODUCT_DEFINITION_SHAPE ( 'NONE', 'NONE',  #194 ) ;
#46 = AXIS2_PLACEMENT_3D ( 'NONE', #24, #152, #205 ) ;
#47 = CARTESIAN_POINT ( 'NONE',  ( 0.0000000000000000000, 46.23819476282136500, 0.0000000000000000000 ) ) ;
#48 = EDGE_CURVE ( 'NONE', #228, #132, #97, .T. ) ;
#49 = CIRCLE ( 'NONE', #343, 8.448357588300799700 ) ;
#50 = VERTEX_POINT ( 'NONE', #242 ) ;
#51 = AXIS2_PLACEMENT_3D ( 'NONE', #32, #107, #270 ) ;
#52 = FACE_OUTER_BOUND ( 'NONE', #43, .T. ) ;
#53 = CARTESIAN_POINT ( 'NONE',  ( 0.0000000000000000000, 46.23819476282136500, 0.0000000000000000000 ) ) ;
#54 = PRESENTATION_STYLE_ASSIGNMENT (( #196 ) ) ;
#55 = DIRECTION ( 'NONE',  ( -0.0000000000000000000, 1.000000000000000000, -0.0000000000000000000 ) ) ;
#56 = CARTESIAN_POINT ( 'NONE',  ( 0.0000000000000000000, 46.23819476282136500, 17.15934303598226800 ) ) ;
#57 = AXIS2_PLACEMENT_3D ( 'NONE', #355, #172, #332 ) ;
#58 = TOROIDAL_SURFACE ( 'NONE', #272, 0.2888497447356645500, 67.30245859272898200 ) ;
#59 =( NAMED_UNIT ( * ) PLANE_ANGLE_UNIT ( ) SI_UNIT ( $, .RADIAN. ) );
#60 = ORIENTED_EDGE ( 'NONE', *, *, #1, .F. ) ;
#61 = DIRECTION ( 'NONE',  ( 0.0000000000000000000, 0.0000000000000000000, 1.000000000000000000 ) ) ;
#62 = SURFACE_STYLE_USAGE ( .BOTH. , #239 ) ;
#63 = ADVANCED_FACE ( 'NONE', ( #82 ), #227, .F. ) ;
#64 = VECTOR ( 'NONE', #145, 1000.000000000000000 ) ;
#65 = AXIS2_PLACEMENT_3D ( 'NONE', #314, #146, #369 ) ;
#66 = DIRECTION ( 'NONE',  ( -0.0000000000000000000, 1.000000000000000000, -0.0000000000000000000 ) ) ;
#67 = VERTEX_POINT ( 'NONE', #328 ) ;
#68 = ADVANCED_FACE ( 'NONE', ( #257 ), #142, .F. ) ;
#69 = CARTESIAN_POINT ( 'NONE',  ( 2.908536147974964100E-015, 47.90579983628796900, -23.75000000000000400 ) ) ;
#70 = CARTESIAN_POINT ( 'NONE',  ( 0.0000000000000000000, -10.20183874494787400, 0.0000000000000000000 ) ) ;
#71 = DIRECTION ( 'NONE',  ( 1.000000000000000000, 0.0000000000000000000, 1.224646799147353200E-016 ) ) ;
#72 = EDGE_CURVE ( 'NONE', #219, #13, #365, .T. ) ;
#73 = ORIENTED_EDGE ( 'NONE', *, *, #230, .T. ) ;
#74 = ORIENTED_EDGE ( 'NONE', *, *, #29, .F. ) ;
#75 = CARTESIAN_POINT ( 'NONE',  ( 0.0000000000000000000, 10.00000000000000000, 23.75000000000000400 ) ) ;
#76 = CARTESIAN_POINT ( 'NONE',  ( 2.908536147974964500E-015, 9.999999999999987600, -23.75000000000000400 ) ) ;
#77 = AXIS2_PLACEMENT_3D ( 'NONE', #56, #286, #341 ) ;
#78 = VERTEX_POINT ( 'NONE', #36 ) ;
#79 = CARTESIAN_POINT ( 'NONE',  ( 0.0000000000000000000, 9.999999999999987600, 23.75000000000000400 ) ) ;
#80 = FILL_AREA_STYLE ('',( #136 ) ) ;
#81 = DIRECTION ( 'NONE',  ( -0.0000000000000000000, 1.000000000000000000, 0.0000000000000000000 ) ) ;
#82 = FACE_OUTER_BOUND ( 'NONE', #327, .T. ) ;
#83 = ORIENTED_EDGE ( 'NONE', *, *, #130, .F. ) ;
#84 = AXIS2_PLACEMENT_3D ( 'NONE', #323, #165, #325 ) ;
#85 = ORIENTED_EDGE ( 'NONE', *, *, #329, .F. ) ;
#86 = DIRECTION ( 'NONE',  ( 0.0000000000000000000, 0.0000000000000000000, 1.000000000000000000 ) ) ;
#87 = DIRECTION ( 'NONE',  ( 0.0000000000000000000, 0.0000000000000000000, 1.000000000000000000 ) ) ;
#88 = ORIENTED_EDGE ( 'NONE', *, *, #9, .F. ) ;
#89 = ORIENTED_EDGE ( 'NONE', *, *, #230, .F. ) ;
#90 = EDGE_CURVE ( 'NONE', #2, #282, #278, .T. ) ;
#91 = DIRECTION ( 'NONE',  ( 1.224646799147353200E-016, 0.0000000000000000000, -1.000000000000000000 ) ) ;
#92 = CARTESIAN_POINT ( 'NONE',  ( 0.0000000000000000000, 0.0000000000000000000, 0.0000000000000000000 ) ) ;
#93 = DIRECTION ( 'NONE',  ( 0.0000000000000000000, 1.000000000000000000, 0.0000000000000000000 ) ) ;
#94 = DIRECTION ( 'NONE',  ( -0.0000000000000000000, 1.000000000000000000, -0.0000000000000000000 ) ) ;
#95 = STYLED_ITEM ( 'NONE', ( #301 ), #346 ) ;
#96 = CYLINDRICAL_SURFACE ( 'NONE', #65, 25.40000000000000200 ) ;
#97 = CIRCLE ( 'NONE', #51, 19.94925318960290600 ) ;
#98 = EDGE_LOOP ( 'NONE', ( #115, #88, #192, #342 ) ) ;
#99 = DIRECTION ( 'NONE',  ( 0.0000000000000000000, 0.0000000000000000000, -1.000000000000000000 ) ) ;
#100 = ORIENTED_EDGE ( 'NONE', *, *, #29, .T. ) ;
#101 = EDGE_LOOP ( 'NONE', ( #19, #73, #247, #162 ) ) ;
#102 = CARTESIAN_POINT ( 'NONE',  ( 0.0000000000000000000, 10.00000000000000000, 0.0000000000000000000 ) ) ;
#103 = ADVANCED_FACE ( 'NONE', ( #111 ), #348, .F. ) ;
#104 = AXIS2_PLACEMENT_3D ( 'NONE', #260, #289, #91 ) ;
#105 = COLOUR_RGB ( '',0.7921568627450980000, 0.8196078431372548800, 0.9333333333333333500 ) ;
#106 = ORIENTED_EDGE ( 'NONE', *, *, #9, .T. ) ;
#107 = DIRECTION ( 'NONE',  ( 0.0000000000000000000, 1.000000000000000000, 0.0000000000000000000 ) ) ;
#108 = SURFACE_SIDE_STYLE ('',( #317 ) ) ;
#109 = VECTOR ( 'NONE', #305, 1000.000000000000000 ) ;
#110 = AXIS2_PLACEMENT_3D ( 'NONE', #39, #352, #34 ) ;
#111 = FACE_OUTER_BOUND ( 'NONE', #98, .T. ) ;
#112 = CARTESIAN_POINT ( 'NONE',  ( 0.0000000000000000000, 52.43771629541815600, 19.94925318960291700 ) ) ;
#113 = EDGE_CURVE ( 'NONE', #282, #258, #49, .T. ) ;
#114 = ORIENTED_EDGE ( 'NONE', *, *, #307, .T. ) ;
#115 = ORIENTED_EDGE ( 'NONE', *, *, #279, .F. ) ;
#116 = AXIS2_PLACEMENT_3D ( 'NONE', #330, #358, #11 ) ;
#117 = CARTESIAN_POINT ( 'NONE',  ( 0.0000000000000000000, 46.23819476282136500, 17.15934303598226800 ) ) ;
#118 = AXIS2_PLACEMENT_3D ( 'NONE', #222, #44, #12 ) ;
#119 = CIRCLE ( 'NONE', #225, 23.75000000000000400 ) ;
#120 = TOROIDAL_SURFACE ( 'NONE', #360, 17.15934303598226800, 8.448357588300799700 ) ;
#121 = ORIENTED_EDGE ( 'NONE', *, *, #263, .F. ) ;
#122 = DIRECTION ( 'NONE',  ( 0.0000000000000000000, 0.0000000000000000000, 1.000000000000000000 ) ) ;
#123 = CARTESIAN_POINT ( 'NONE',  ( 0.0000000000000000000, 46.23819476282136500, 0.0000000000000000000 ) ) ;
#124 = FACE_OUTER_BOUND ( 'NONE', #233, .T. ) ;
#125 = ORIENTED_EDGE ( 'NONE', *, *, #285, .F. ) ;
#126 = AXIS2_PLACEMENT_3D ( 'NONE', #252, #356, #10 ) ;
#127 = DIRECTION ( 'NONE',  ( -0.0000000000000000000, 1.000000000000000000, -0.0000000000000000000 ) ) ;
#128 = ADVANCED_FACE ( 'NONE', ( #336 ), #58, .T. ) ;
#129 = CARTESIAN_POINT ( 'NONE',  ( 2.443078906402733600E-015, 52.43771629541815600, -19.94925318960291700 ) ) ;
#130 = EDGE_CURVE ( 'NONE', #13, #28, #201, .T. ) ;
#131 = DIRECTION ( 'NONE',  ( -0.0000000000000000000, 1.000000000000000000, -0.0000000000000000000 ) ) ;
#132 = VERTEX_POINT ( 'NONE', #129 ) ;
#133 = AXIS2_PLACEMENT_3D ( 'NONE', #216, #127, #168 ) ;
#134 = DIRECTION ( 'NONE',  ( 0.0000000000000000000, 0.0000000000000000000, 1.000000000000000000 ) ) ;
#135 = UNCERTAINTY_MEASURE_WITH_UNIT (LENGTH_MEASURE( 1.000000000000000100E-005 ), #211, 'distance_accuracy_value', 'NONE');
#136 = FILL_AREA_STYLE_COLOUR ( '', #105 ) ;
#137 = VERTEX_POINT ( 'NONE', #3 ) ;
#138 = CARTESIAN_POINT ( 'NONE',  ( 0.0000000000000000000, -10.20183874494787400, 0.2888497447356645500 ) ) ;
#139 = DIRECTION ( 'NONE',  ( -0.0000000000000000000, 1.000000000000000000, -0.0000000000000000000 ) ) ;
#140 = FACE_OUTER_BOUND ( 'NONE', #372, .T. ) ;
#141 = AXIS2_PLACEMENT_3D ( 'NONE', #363, #154, #364 ) ;
#142 = TOROIDAL_SURFACE ( 'NONE', #84, 0.2888497447356645500, 65.65245859272899100 ) ;
#143 = ORIENTED_EDGE ( 'NONE', *, *, #248, .F. ) ;
#144 = CLOSED_SHELL ( 'NONE', ( #374, #292, #68, #213, #33, #187, #161, #128, #185, #347, #271, #63, #103 ) ) ;
#145 = DIRECTION ( 'NONE',  ( -0.0000000000000000000, 1.000000000000000000, -0.0000000000000000000 ) ) ;
#146 = DIRECTION ( 'NONE',  ( -0.0000000000000000000, 1.000000000000000000, -0.0000000000000000000 ) ) ;
#147 = AXIS2_PLACEMENT_3D ( 'NONE', #244, #131, #99 ) ;
#148 = DIRECTION ( 'NONE',  ( -0.0000000000000000000, 1.000000000000000000, -0.0000000000000000000 ) ) ;
#149 = EDGE_CURVE ( 'NONE', #258, #280, #191, .T. ) ;
#150 = DIRECTION ( 'NONE',  ( 0.0000000000000000000, 0.0000000000000000000, 1.000000000000000000 ) ) ;
#151 = ORIENTED_EDGE ( 'NONE', *, *, #322, .F. ) ;
#152 = DIRECTION ( 'NONE',  ( -0.0000000000000000000, 1.000000000000000000, -0.0000000000000000000 ) ) ;
#153 = DIRECTION ( 'NONE',  ( 0.0000000000000000000, 0.0000000000000000000, 1.000000000000000000 ) ) ;
#154 = DIRECTION ( 'NONE',  ( 1.000000000000000000, 0.0000000000000000000, 1.224646799147353200E-016 ) ) ;
#155 = AXIS2_PLACEMENT_3D ( 'NONE', #334, #353, #15 ) ;
#156 = CIRCLE ( 'NONE', #118, 25.39999999999999900 ) ;
#157 = CARTESIAN_POINT ( 'NONE',  ( 0.0000000000000000000, 9.999999999999987600, 0.0000000000000000000 ) ) ;
#158 = ORIENTED_EDGE ( 'NONE', *, *, #149, .T. ) ;
#159 = APPLICATION_CONTEXT ( 'automotive_design' ) ;
#160 = CARTESIAN_POINT ( 'NONE',  ( 0.0000000000000000000, 52.43771629541815600, 0.0000000000000000000 ) ) ;
#161 = ADVANCED_FACE ( 'NONE', ( #209, #183 ), #350, .F. ) ;
#162 = ORIENTED_EDGE ( 'NONE', *, *, #149, .F. ) ;
#163 = DIRECTION ( 'NONE',  ( -0.0000000000000000000, 1.000000000000000000, -0.0000000000000000000 ) ) ;
#164 = MECHANICAL_DESIGN_GEOMETRIC_PRESENTATION_REPRESENTATION (  '', ( #95 ), #251 ) ;
#165 = DIRECTION ( 'NONE',  ( -0.0000000000000000000, 1.000000000000000000, -0.0000000000000000000 ) ) ;
#166 = FACE_OUTER_BOUND ( 'NONE', #8, .T. ) ;
#167 = ORIENTED_EDGE ( 'NONE', *, *, #290, .F. ) ;
#168 = DIRECTION ( 'NONE',  ( 0.0000000000000000000, 0.0000000000000000000, 1.000000000000000000 ) ) ;
#169 = DIRECTION ( 'NONE',  ( 0.0000000000000000000, 0.0000000000000000000, 1.000000000000000000 ) ) ;
#170 = AXIS2_PLACEMENT_3D ( 'NONE', #123, #238, #153 ) ;
#171 = CIRCLE ( 'NONE', #5, 20.53240548377522500 ) ;
#172 = DIRECTION ( 'NONE',  ( -1.000000000000000000, 0.0000000000000000000, 0.0000000000000000000 ) ) ;
#173 = ORIENTED_EDGE ( 'NONE', *, *, #279, .T. ) ;
#174 = CARTESIAN_POINT ( 'NONE',  ( 2.908536147974964500E-015, 10.00000000000000000, -23.75000000000000400 ) ) ;
#175 = VECTOR ( 'NONE', #351, 1000.000000000000000 ) ;
#176 = VERTEX_POINT ( 'NONE', #76 ) ;
#177 = MANIFOLD_SOLID_BREP ( 'Shell1', #144 ) ;
#178 = DIRECTION ( 'NONE',  ( 0.0000000000000000000, 0.0000000000000000000, 1.000000000000000000 ) ) ;
#179 = DIRECTION ( 'NONE',  ( 0.0000000000000000000, 0.0000000000000000000, 1.000000000000000000 ) ) ;
#180 = CARTESIAN_POINT ( 'NONE',  ( 0.0000000000000000000, 9.999999999999976900, 0.0000000000000000000 ) ) ;
#181 = CARTESIAN_POINT ( 'NONE',  ( 0.0000000000000000000, 47.90579983628796900, 0.0000000000000000000 ) ) ;
#182 = LINE ( 'NONE', #174, #109 ) ;
#183 = FACE_OUTER_BOUND ( 'NONE', #250, .T. ) ;
#184 = EDGE_LOOP ( 'NONE', ( #60, #31, #121 ) ) ;
#185 = ADVANCED_FACE ( 'NONE', ( #218 ), #120, .T. ) ;
#186 = PRODUCT_DEFINITION_CONTEXT ( 'detailed design', #159, 'design' ) ;
#187 = ADVANCED_FACE ( 'NONE', ( #52 ), #371, .T. ) ;
#188 = AXIS2_PLACEMENT_3D ( 'NONE', #294, #81, #254 ) ;
#189 = DIRECTION ( 'NONE',  ( -0.0000000000000000000, 1.000000000000000000, -0.0000000000000000000 ) ) ;
#190 = DIRECTION ( 'NONE',  ( 1.224646799147353200E-016, 0.0000000000000000000, -1.000000000000000000 ) ) ;
#191 = CIRCLE ( 'NONE', #133, 20.53240548377522500 ) ;
#192 = ORIENTED_EDGE ( 'NONE', *, *, #72, .T. ) ;
#193 = DIRECTION ( 'NONE',  ( -0.0000000000000000000, 1.000000000000000000, -0.0000000000000000000 ) ) ;
#194 = PRODUCT_DEFINITION ( 'UNKNOWN', '', #245, #186 ) ;
#195 = DIRECTION ( 'NONE',  ( 0.0000000000000000000, 0.0000000000000000000, 1.000000000000000000 ) ) ;
#196 = SURFACE_STYLE_USAGE ( .BOTH. , #108 ) ;
#197 = ORIENTED_EDGE ( 'NONE', *, *, #1, .T. ) ;
#198 = CARTESIAN_POINT ( 'NONE',  ( 2.514494465450088900E-015, 53.98398043395175000, -20.53240548377522500 ) ) ;
#199 = AXIS2_PLACEMENT_3D ( 'NONE', #117, #284, #87 ) ;
#200 = CIRCLE ( 'NONE', #77, 8.448357588300799700 ) ;
#201 = CIRCLE ( 'NONE', #147, 23.75000000000000400 ) ;
#202 = ORIENTED_EDGE ( 'NONE', *, *, #72, .F. ) ;
#203 = CARTESIAN_POINT ( 'NONE',  ( 3.110602869834277300E-015, 10.00000000000000000, -25.40000000000000200 ) ) ;
#204 = FILL_AREA_STYLE_COLOUR ( '', #7 ) ;
#205 = DIRECTION ( 'NONE',  ( 0.0000000000000000000, 0.0000000000000000000, 1.000000000000000000 ) ) ;
#206 =( GEOMETRIC_REPRESENTATION_CONTEXT ( 3 ) GLOBAL_UNCERTAINTY_ASSIGNED_CONTEXT ( ( #17 ) ) GLOBAL_UNIT_ASSIGNED_CONTEXT ( ( #40, #226, #274 ) ) REPRESENTATION_CONTEXT ( 'NONE', 'WORKASPACE' ) );
#207 = CIRCLE ( 'NONE', #232, 23.75000000000000400 ) ;
#208 = CARTESIAN_POINT ( 'NONE',  ( 0.0000000000000000000, 9.999999999999987600, 0.0000000000000000000 ) ) ;
#209 = FACE_BOUND ( 'NONE', #241, .T. ) ;
#210 = ORIENTED_EDGE ( 'NONE', *, *, #376, .F. ) ;
#211 =( LENGTH_UNIT ( ) NAMED_UNIT ( * ) SI_UNIT ( .MILLI., .METRE. ) );
#212 = AXIS2_PLACEMENT_3D ( 'NONE', #102, #193, #195 ) ;
#213 = ADVANCED_FACE ( 'NONE', ( #140 ), #23, .T. ) ;
#214 = PRODUCT_CONTEXT ( 'NONE', #344, 'mechanical' ) ;
#215 = CIRCLE ( 'NONE', #35, 23.75000000000000400 ) ;
#216 = CARTESIAN_POINT ( 'NONE',  ( 0.0000000000000000000, 53.98398043395174300, 0.0000000000000000000 ) ) ;
#217 = CARTESIAN_POINT ( 'NONE',  ( 2.101413452448710800E-015, 46.23819476282136500, -17.15934303598226800 ) ) ;
#218 = FACE_OUTER_BOUND ( 'NONE', #101, .T. ) ;
#219 = VERTEX_POINT ( 'NONE', #79 ) ;
#220 = EDGE_LOOP ( 'NONE', ( #361, #269, #167, #337 ) ) ;
#221 = AXIS2_PLACEMENT_3D ( 'NONE', #92, #122, #243 ) ;
#222 = CARTESIAN_POINT ( 'NONE',  ( 0.0000000000000000000, 48.09999999999998700, 0.0000000000000000000 ) ) ;
#223 = LINE ( 'NONE', #283, #64 ) ;
#224 = ORIENTED_EDGE ( 'NONE', *, *, #322, .T. ) ;
#225 = AXIS2_PLACEMENT_3D ( 'NONE', #181, #55, #266 ) ;
#226 =( NAMED_UNIT ( * ) PLANE_ANGLE_UNIT ( ) SI_UNIT ( $, .RADIAN. ) );
#227 = TOROIDAL_SURFACE ( 'NONE', #277, 17.15934303598226800, 6.798357588300800300 ) ;
#228 = VERTEX_POINT ( 'NONE', #112 ) ;
#229 = CARTESIAN_POINT ( 'NONE',  ( 0.0000000000000000000, 53.98398043395174300, 0.0000000000000000000 ) ) ;
#230 = EDGE_CURVE ( 'NONE', #282, #2, #156, .T. ) ;
#231 = CARTESIAN_POINT ( 'NONE',  ( 0.0000000000000000000, 53.98398043395175000, 20.53240548377522500 ) ) ;
#232 = AXIS2_PLACEMENT_3D ( 'NONE', #208, #94, #150 ) ;
#233 = EDGE_LOOP ( 'NONE', ( #273, #308, #345 ) ) ;
#234 = CARTESIAN_POINT ( 'NONE',  ( 3.110602869834276900E-015, 48.09999999999998700, -25.39999999999999900 ) ) ;
#235 = EDGE_LOOP ( 'NONE', ( #210, #173, #224, #202 ) ) ;
#236 = ORIENTED_EDGE ( 'NONE', *, *, #307, .F. ) ;
#237 = AXIS2_PLACEMENT_3D ( 'NONE', #370, #240, #268 ) ;
#238 = DIRECTION ( 'NONE',  ( -0.0000000000000000000, 1.000000000000000000, -0.0000000000000000000 ) ) ;
#239 = SURFACE_SIDE_STYLE ('',( #306 ) ) ;
#240 = DIRECTION ( 'NONE',  ( 1.000000000000000000, 0.0000000000000000000, 1.224646799147353200E-016 ) ) ;
#241 = EDGE_LOOP ( 'NONE', ( #106, #299 ) ) ;
#242 = CARTESIAN_POINT ( 'NONE',  ( 1.234821189751571000E-030, 55.44998442162504700, -5.041540102057595600E-015 ) ) ;
#243 = DIRECTION ( 'NONE',  ( 1.000000000000000000, 0.0000000000000000000, 0.0000000000000000000 ) ) ;
#244 = CARTESIAN_POINT ( 'NONE',  ( 0.0000000000000000000, 47.90579983628796900, 0.0000000000000000000 ) ) ;
#245 = PRODUCT_DEFINITION_FORMATION_WITH_SPECIFIED_SOURCE ( 'ANY', '', #367, .NOT_KNOWN. ) ;
#246 = FACE_OUTER_BOUND ( 'NONE', #220, .T. ) ;
#247 = ORIENTED_EDGE ( 'NONE', *, *, #300, .T. ) ;
#248 = EDGE_CURVE ( 'NONE', #280, #78, #26, .T. ) ;
#249 = ORIENTED_EDGE ( 'NONE', *, *, #302, .T. ) ;
#250 = EDGE_LOOP ( 'NONE', ( #267, #236 ) ) ;
#251 =( GEOMETRIC_REPRESENTATION_CONTEXT ( 3 ) GLOBAL_UNCERTAINTY_ASSIGNED_CONTEXT ( ( #4 ) ) GLOBAL_UNIT_ASSIGNED_CONTEXT ( ( #21, #59, #264 ) ) REPRESENTATION_CONTEXT ( 'NONE', 'WORKASPACE' ) );
#252 = CARTESIAN_POINT ( 'NONE',  ( 0.0000000000000000000, 10.00000000000000000, 0.0000000000000000000 ) ) ;
#253 = TOROIDAL_SURFACE ( 'NONE', #261, 17.15934303598226800, 6.798357588300800300 ) ;
#254 = DIRECTION ( 'NONE',  ( 0.0000000000000000000, 0.0000000000000000000, 1.000000000000000000 ) ) ;
#255 = AXIS2_PLACEMENT_3D ( 'NONE', #309, #148, #179 ) ;
#256 = LINE ( 'NONE', #203, #42 ) ;
#257 = FACE_OUTER_BOUND ( 'NONE', #184, .T. ) ;
#258 = VERTEX_POINT ( 'NONE', #198 ) ;
#259 = CIRCLE ( 'NONE', #255, 25.40000000000000600 ) ;
#260 = CARTESIAN_POINT ( 'NONE',  ( 3.537389153250616300E-017, -10.20183874494787400, -0.2888497447356645500 ) ) ;
#261 = AXIS2_PLACEMENT_3D ( 'NONE', #53, #335, #86 ) ;
#262 =( NAMED_UNIT ( * ) PLANE_ANGLE_UNIT ( ) SI_UNIT ( $, .RADIAN. ) );
#263 = EDGE_CURVE ( 'NONE', #228, #50, #275, .T. ) ;
#264 =( NAMED_UNIT ( * ) SI_UNIT ( $, .STERADIAN. ) SOLID_ANGLE_UNIT ( ) );
#265 = FACE_OUTER_BOUND ( 'NONE', #235, .T. ) ;
#266 = DIRECTION ( 'NONE',  ( 0.0000000000000000000, 0.0000000000000000000, -1.000000000000000000 ) ) ;
#267 = ORIENTED_EDGE ( 'NONE', *, *, #313, .F. ) ;
#268 = DIRECTION ( 'NONE',  ( 1.224646799147353500E-016, 0.0000000000000000000, -1.000000000000000000 ) ) ;
#269 = ORIENTED_EDGE ( 'NONE', *, *, #113, .T. ) ;
#270 = DIRECTION ( 'NONE',  ( 0.0000000000000000000, 0.0000000000000000000, 1.000000000000000000 ) ) ;
#271 = ADVANCED_FACE ( 'NONE', ( #124 ), #339, .F. ) ;
#272 = AXIS2_PLACEMENT_3D ( 'NONE', #70, #189, #6 ) ;
#273 = ORIENTED_EDGE ( 'NONE', *, *, #340, .F. ) ;
#274 =( NAMED_UNIT ( * ) SI_UNIT ( $, .STERADIAN. ) SOLID_ANGLE_UNIT ( ) );
#275 = CIRCLE ( 'NONE', #304, 65.65245859272899100 ) ;
#276 = DIRECTION ( 'NONE',  ( -1.000000000000000000, 0.0000000000000000000, 0.0000000000000000000 ) ) ;
#277 = AXIS2_PLACEMENT_3D ( 'NONE', #321, #163, #134 ) ;
#278 = CIRCLE ( 'NONE', #110, 25.39999999999999900 ) ;
#279 = EDGE_CURVE ( 'NONE', #176, #28, #182, .T. ) ;
#280 = VERTEX_POINT ( 'NONE', #231 ) ;
#281 = DIRECTION ( 'NONE',  ( 0.0000000000000000000, 0.0000000000000000000, 1.000000000000000000 ) ) ;
#282 = VERTEX_POINT ( 'NONE', #234 ) ;
#283 = CARTESIAN_POINT ( 'NONE',  ( 0.0000000000000000000, 10.00000000000000000, 25.40000000000000200 ) ) ;
#284 = DIRECTION ( 'NONE',  ( -1.000000000000000000, 0.0000000000000000000, 0.0000000000000000000 ) ) ;
#285 = EDGE_CURVE ( 'NONE', #67, #282, #256, .T. ) ;
#286 = DIRECTION ( 'NONE',  ( -1.000000000000000000, 0.0000000000000000000, 0.0000000000000000000 ) ) ;
#287 = ORIENTED_EDGE ( 'NONE', *, *, #329, .T. ) ;
#288 = AXIS2_PLACEMENT_3D ( 'NONE', #160, #93, #318 ) ;
#289 = DIRECTION ( 'NONE',  ( 1.000000000000000000, 0.0000000000000000000, 1.224646799147353200E-016 ) ) ;
#290 = EDGE_CURVE ( 'NONE', #280, #258, #171, .T. ) ;
#291 = CARTESIAN_POINT ( 'NONE',  ( 0.0000000000000000000, 47.90579983628796900, 23.75000000000000400 ) ) ;
#292 = ADVANCED_FACE ( 'NONE', ( #37 ), #253, .F. ) ;
#293 = ORIENTED_EDGE ( 'NONE', *, *, #48, .T. ) ;
#294 = CARTESIAN_POINT ( 'NONE',  ( 0.0000000000000000000, 9.999999999999987600, 0.0000000000000000000 ) ) ;
#295 = AXIS2_PLACEMENT_3D ( 'NONE', #180, #310, #316 ) ;
#296 = TOROIDAL_SURFACE ( 'NONE', #170, 17.15934303598226800, 8.448357588300799700 ) ;
#297 = EDGE_LOOP ( 'NONE', ( #74, #158, #27 ) ) ;
#298 = EDGE_CURVE ( 'NONE', #137, #2, #223, .T. ) ;
#299 = ORIENTED_EDGE ( 'NONE', *, *, #376, .T. ) ;
#300 = EDGE_CURVE ( 'NONE', #2, #280, #200, .T. ) ;
#301 = PRESENTATION_STYLE_ASSIGNMENT (( #62 ) ) ;
#302 = EDGE_CURVE ( 'NONE', #13, #228, #331, .T. ) ;
#303 = ORIENTED_EDGE ( 'NONE', *, *, #302, .F. ) ;
#304 = AXIS2_PLACEMENT_3D ( 'NONE', #138, #276, #178 ) ;
#305 = DIRECTION ( 'NONE',  ( -0.0000000000000000000, 1.000000000000000000, -0.0000000000000000000 ) ) ;
#306 = SURFACE_STYLE_FILL_AREA ( #368 ) ;
#307 = EDGE_CURVE ( 'NONE', #67, #137, #315, .T. ) ;
#308 = ORIENTED_EDGE ( 'NONE', *, *, #48, .F. ) ;
#309 = CARTESIAN_POINT ( 'NONE',  ( 0.0000000000000000000, 9.999999999999976900, 0.0000000000000000000 ) ) ;
#310 = DIRECTION ( 'NONE',  ( -0.0000000000000000000, 1.000000000000000000, -0.0000000000000000000 ) ) ;
#311 = ORIENTED_EDGE ( 'NONE', *, *, #290, .T. ) ;
#312 = MECHANICAL_DESIGN_GEOMETRIC_PRESENTATION_REPRESENTATION (  '', ( #324 ), #206 ) ;
#313 = EDGE_CURVE ( 'NONE', #137, #67, #259, .T. ) ;
#314 = CARTESIAN_POINT ( 'NONE',  ( 0.0000000000000000000, 10.00000000000000000, 0.0000000000000000000 ) ) ;
#315 = CIRCLE ( 'NONE', #295, 25.40000000000000600 ) ;
#316 = DIRECTION ( 'NONE',  ( 0.0000000000000000000, 0.0000000000000000000, 1.000000000000000000 ) ) ;
#317 = SURFACE_STYLE_FILL_AREA ( #80 ) ;
#318 = DIRECTION ( 'NONE',  ( 0.0000000000000000000, 0.0000000000000000000, 1.000000000000000000 ) ) ;
#319 = ORIENTED_EDGE ( 'NONE', *, *, #313, .T. ) ;
#320 = APPLICATION_PROTOCOL_DEFINITION ( 'draft international standard', 'automotive_design', 1998, #159 ) ;
#321 = CARTESIAN_POINT ( 'NONE',  ( 0.0000000000000000000, 46.23819476282136500, 0.0000000000000000000 ) ) ;
#322 = EDGE_CURVE ( 'NONE', #28, #13, #119, .T. ) ;
#323 = CARTESIAN_POINT ( 'NONE',  ( 0.0000000000000000000, -10.20183874494787400, 0.0000000000000000000 ) ) ;
#324 = STYLED_ITEM ( 'NONE', ( #54 ), #177 ) ;
#325 = DIRECTION ( 'NONE',  ( 0.0000000000000000000, 0.0000000000000000000, 1.000000000000000000 ) ) ;
#326 = CIRCLE ( 'NONE', #237, 67.30245859272898200 ) ;
#327 = EDGE_LOOP ( 'NONE', ( #85, #83, #249, #293 ) ) ;
#328 = CARTESIAN_POINT ( 'NONE',  ( 3.110602869834278000E-015, 9.999999999999976900, -25.40000000000000900 ) ) ;
#329 = EDGE_CURVE ( 'NONE', #28, #132, #16, .T. ) ;
#330 = CARTESIAN_POINT ( 'NONE',  ( 0.0000000000000000000, -10.20183874494787400, 0.0000000000000000000 ) ) ;
#331 = CIRCLE ( 'NONE', #199, 6.798357588300802100 ) ;
#332 = DIRECTION ( 'NONE',  ( 0.0000000000000000000, 0.0000000000000000000, 1.000000000000000000 ) ) ;
#333 = PRESENTATION_LAYER_ASSIGNMENT (  '', '', ( #95 ) ) ;
#334 = CARTESIAN_POINT ( 'NONE',  ( 0.0000000000000000000, -10.20183874494787400, 0.0000000000000000000 ) ) ;
#335 = DIRECTION ( 'NONE',  ( -0.0000000000000000000, 1.000000000000000000, -0.0000000000000000000 ) ) ;
#336 = FACE_OUTER_BOUND ( 'NONE', #297, .T. ) ;
#337 = ORIENTED_EDGE ( 'NONE', *, *, #300, .F. ) ;
#338 = SHAPE_DEFINITION_REPRESENTATION ( #45, #346 ) ;
#339 = TOROIDAL_SURFACE ( 'NONE', #155, 0.2888497447356645500, 65.65245859272899100 ) ;
#340 = EDGE_CURVE ( 'NONE', #132, #50, #30, .T. ) ;
#341 = DIRECTION ( 'NONE',  ( 0.0000000000000000000, 0.0000000000000000000, 1.000000000000000000 ) ) ;
#342 = ORIENTED_EDGE ( 'NONE', *, *, #130, .T. ) ;
#343 = AXIS2_PLACEMENT_3D ( 'NONE', #217, #71, #190 ) ;
#344 = APPLICATION_CONTEXT ( 'automotive_design' ) ;
#345 = ORIENTED_EDGE ( 'NONE', *, *, #263, .T. ) ;
#346 = ADVANCED_BREP_SHAPE_REPRESENTATION ( 'DT30 50.8', ( #177, #221 ), #373 ) ;
#347 = ADVANCED_FACE ( 'NONE', ( #166 ), #96, .T. ) ;
#348 = CYLINDRICAL_SURFACE ( 'NONE', #212, 23.75000000000000400 ) ;
#349 = ORIENTED_EDGE ( 'NONE', *, *, #285, .T. ) ;
#350 = PLANE ( 'NONE',  #188 ) ;
#351 = DIRECTION ( 'NONE',  ( -0.0000000000000000000, 1.000000000000000000, -0.0000000000000000000 ) ) ;
#352 = DIRECTION ( 'NONE',  ( -0.0000000000000000000, 1.000000000000000000, -0.0000000000000000000 ) ) ;
#353 = DIRECTION ( 'NONE',  ( -0.0000000000000000000, 1.000000000000000000, -0.0000000000000000000 ) ) ;
#354 = ORIENTED_EDGE ( 'NONE', *, *, #90, .F. ) ;
#355 = CARTESIAN_POINT ( 'NONE',  ( 0.0000000000000000000, -10.20183874494787400, 0.2888497447356645500 ) ) ;
#356 = DIRECTION ( 'NONE',  ( -0.0000000000000000000, 1.000000000000000000, -0.0000000000000000000 ) ) ;
#357 = CIRCLE ( 'NONE', #288, 19.94925318960290600 ) ;
#358 = DIRECTION ( 'NONE',  ( -0.0000000000000000000, 1.000000000000000000, -0.0000000000000000000 ) ) ;
#359 = EDGE_LOOP ( 'NONE', ( #151, #287, #197, #303 ) ) ;
#360 = AXIS2_PLACEMENT_3D ( 'NONE', #47, #139, #169 ) ;
#361 = ORIENTED_EDGE ( 'NONE', *, *, #90, .T. ) ;
#362 = APPLICATION_PROTOCOL_DEFINITION ( 'draft international standard', 'automotive_design', 1998, #344 ) ;
#363 = CARTESIAN_POINT ( 'NONE',  ( 2.101413452448710800E-015, 46.23819476282136500, -17.15934303598226800 ) ) ;
#364 = DIRECTION ( 'NONE',  ( 1.224646799147353200E-016, 0.0000000000000000000, -1.000000000000000000 ) ) ;
#365 = LINE ( 'NONE', #75, #175 ) ;
#366 = ORIENTED_EDGE ( 'NONE', *, *, #298, .T. ) ;
#367 = PRODUCT ( 'DT30 50.8', 'DT30 50.8', '', ( #214 ) ) ;
#368 = FILL_AREA_STYLE ('',( #204 ) ) ;
#369 = DIRECTION ( 'NONE',  ( 0.0000000000000000000, 0.0000000000000000000, 1.000000000000000000 ) ) ;
#370 = CARTESIAN_POINT ( 'NONE',  ( 3.537389153250616300E-017, -10.20183874494787400, -0.2888497447356645500 ) ) ;
#371 = TOROIDAL_SURFACE ( 'NONE', #116, 0.2888497447356645500, 67.30245859272898200 ) ;
#372 = EDGE_LOOP ( 'NONE', ( #319, #349, #354, #38 ) ) ;
#373 =( GEOMETRIC_REPRESENTATION_CONTEXT ( 3 ) GLOBAL_UNCERTAINTY_ASSIGNED_CONTEXT ( ( #135 ) ) GLOBAL_UNIT_ASSIGNED_CONTEXT ( ( #211, #262, #25 ) ) REPRESENTATION_CONTEXT ( 'NONE', 'WORKASPACE' ) );
#374 = ADVANCED_FACE ( 'NONE', ( #265 ), #41, .F. ) ;
#375 = CARTESIAN_POINT ( 'NONE',  ( 0.0000000000000000000, 48.09999999999998700, 25.39999999999999900 ) ) ;
#376 = EDGE_CURVE ( 'NONE', #176, #219, #207, .T. ) ;
ENDSEC;
END-ISO-10303-21;
