ISO-10303-21;
HEADER;
/****************************************************************
 * Generated by software with PDE/Lib inside                    *
 * PDElib Version v51a, created Thu 12/14/2006                  *
 * International Technegroup Inc. (www.iti-oh.com)              *
 ****************************************************************/
FILE_DESCRIPTION((''),'2;1');
FILE_NAME('T:\\Arbeitspl\S\dtze\\Aushilfe\\KPeters\\3D\\Steps 08_10\\12402\\12402032X020.stp','2010-08-05T10:30:00',('thilbrands'),(''),'Autodesk Inventor 2008','Autodesk Inventor 2008','');
FILE_SCHEMA(('AUTOMOTIVE_DESIGN { 1 0 10303 214 1 1 1 1 }'));
ENDSEC;
DATA;
#5=APPLICATION_CONTEXT('automotive design');
#6=APPLICATION_PROTOCOL_DEFINITION('International Standard','automotive_design',2001,#5);
#7=PRODUCT_CONTEXT('',#5,'mechanical');
#8=PRODUCT('124020151010','124020151010',$,(#7));
#9=PRODUCT_RELATED_PRODUCT_CATEGORY('part',$,(#8));
#10=PRODUCT_DEFINITION_FORMATION('',$,#8);
#11=PRODUCT_DEFINITION_CONTEXT('part definition',#5,'design');
#12=PRODUCT_DEFINITION('',$,#10,#11);
#18=(NAMED_UNIT(*)PLANE_ANGLE_UNIT()SI_UNIT($,.RADIAN.));
#19=DIMENSIONAL_EXPONENTS(0.0,0.0,0.0,0.0,0.0,0.0,0.0);
#20=PLANE_ANGLE_MEASURE_WITH_UNIT(PLANE_ANGLE_MEASURE(0.017453292500000),#18);
#24=(CONVERSION_BASED_UNIT('DEGREE',#20)NAMED_UNIT(#19)PLANE_ANGLE_UNIT());
#28=(NAMED_UNIT(*)SI_UNIT($,.STERADIAN.)SOLID_ANGLE_UNIT());
#32=(LENGTH_UNIT()NAMED_UNIT(*)SI_UNIT(.MILLI.,.METRE.));
#34=UNCERTAINTY_MEASURE_WITH_UNIT(LENGTH_MEASURE(0.010000000000000),#32,'DISTANCE_ACCURACY_VALUE','');
#36=(GEOMETRIC_REPRESENTATION_CONTEXT(3)GLOBAL_UNCERTAINTY_ASSIGNED_CONTEXT((#34))GLOBAL_UNIT_ASSIGNED_CONTEXT((#24,#28,#32))REPRESENTATION_CONTEXT('None','None'));
#37=AXIS2_PLACEMENT_3D('',#38,#39,#40);
#38=CARTESIAN_POINT('',(0.0,0.0,0.0));
#39=DIRECTION('',(0.0,0.0,1.0));
#40=DIRECTION('',(1.0,0.0,0.0));
#41=SHAPE_REPRESENTATION('',(#37),#36);
#42=PRODUCT_DEFINITION_SHAPE('','',#12);
#43=SHAPE_DEFINITION_REPRESENTATION(#42,#41);
#49=(NAMED_UNIT(*)PLANE_ANGLE_UNIT()SI_UNIT($,.RADIAN.));
#50=DIMENSIONAL_EXPONENTS(0.0,0.0,0.0,0.0,0.0,0.0,0.0);
#51=PLANE_ANGLE_MEASURE_WITH_UNIT(PLANE_ANGLE_MEASURE(0.017453292500000),#49);
#55=(CONVERSION_BASED_UNIT('DEGREE',#51)NAMED_UNIT(#50)PLANE_ANGLE_UNIT());
#59=(NAMED_UNIT(*)SI_UNIT($,.STERADIAN.)SOLID_ANGLE_UNIT());
#63=(LENGTH_UNIT()NAMED_UNIT(*)SI_UNIT(.MILLI.,.METRE.));
#65=UNCERTAINTY_MEASURE_WITH_UNIT(LENGTH_MEASURE(0.000001000000000),#63,'DISTANCE_ACCURACY_VALUE','');
#67=(GEOMETRIC_REPRESENTATION_CONTEXT(3)GLOBAL_UNCERTAINTY_ASSIGNED_CONTEXT((#65))GLOBAL_UNIT_ASSIGNED_CONTEXT((#55,#59,#63))REPRESENTATION_CONTEXT('','3D'));
#68=CARTESIAN_POINT('',(-8.400000000000004,-1.530758E-015,12.500000000000002));
#69=CARTESIAN_POINT('',(-10.000000000000004,-1.530758E-015,12.500000000000000));
#70=CARTESIAN_POINT('',(-10.000000000000004,-1.726695E-015,14.100000000000001));
#71=CARTESIAN_POINT('',(-10.000000000000004,-1.922632E-015,15.700000000000001));
#72=CARTESIAN_POINT('',(-8.400000000000004,-1.922632E-015,15.700000000000001));
#73=CARTESIAN_POINT('',(-8.400000000000004,-12.500000000000000,12.499999999999996));
#74=CARTESIAN_POINT('',(-10.000000000000004,-12.500000000000000,12.499999999999996));
#75=CARTESIAN_POINT('',(-10.000000000000004,-14.100000000000000,14.099999999999996));
#76=CARTESIAN_POINT('',(-10.000000000000004,-15.699999999999999,15.699999999999996));
#77=CARTESIAN_POINT('',(-8.400000000000004,-15.699999999999998,15.699999999999996));
#78=CARTESIAN_POINT('',(-8.400000000000004,-12.500000000000002,-1.530758E-015));
#79=CARTESIAN_POINT('',(-10.000000000000004,-12.500000000000000,-1.530758E-015));
#80=CARTESIAN_POINT('',(-10.000000000000004,-14.100000000000001,-1.726695E-015));
#81=CARTESIAN_POINT('',(-10.000000000000004,-15.700000000000001,-1.922632E-015));
#82=CARTESIAN_POINT('',(-8.400000000000004,-15.700000000000001,-1.922632E-015));
#83=CARTESIAN_POINT('',(-8.400000000000004,-12.499999999999996,-12.500000000000000));
#84=CARTESIAN_POINT('',(-10.000000000000004,-12.499999999999996,-12.500000000000000));
#85=CARTESIAN_POINT('',(-10.000000000000004,-14.099999999999996,-14.100000000000000));
#86=CARTESIAN_POINT('',(-10.000000000000004,-15.699999999999996,-15.699999999999999));
#87=CARTESIAN_POINT('',(-8.400000000000004,-15.699999999999996,-15.699999999999998));
#88=CARTESIAN_POINT('',(-8.400000000000004,1.530758E-015,-12.500000000000002));
#89=CARTESIAN_POINT('',(-10.000000000000004,1.530758E-015,-12.500000000000000));
#90=CARTESIAN_POINT('',(-10.000000000000004,1.726695E-015,-14.100000000000001));
#91=CARTESIAN_POINT('',(-10.000000000000004,1.922632E-015,-15.700000000000001));
#92=CARTESIAN_POINT('',(-8.400000000000004,1.922632E-015,-15.700000000000001));
#93=CARTESIAN_POINT('',(-8.400000000000004,12.500000000000000,-12.499999999999996));
#94=CARTESIAN_POINT('',(-10.000000000000004,12.500000000000000,-12.499999999999996));
#95=CARTESIAN_POINT('',(-10.000000000000004,14.100000000000000,-14.099999999999996));
#96=CARTESIAN_POINT('',(-10.000000000000004,15.699999999999999,-15.699999999999996));
#97=CARTESIAN_POINT('',(-8.400000000000004,15.699999999999998,-15.699999999999996));
#98=CARTESIAN_POINT('',(-8.400000000000004,12.500000000000002,1.530758E-015));
#99=CARTESIAN_POINT('',(-10.000000000000004,12.500000000000000,1.530758E-015));
#100=CARTESIAN_POINT('',(-10.000000000000004,14.100000000000001,1.726695E-015));
#101=CARTESIAN_POINT('',(-10.000000000000004,15.700000000000001,1.922632E-015));
#102=CARTESIAN_POINT('',(-8.400000000000004,15.700000000000001,1.922632E-015));
#103=CARTESIAN_POINT('',(-8.400000000000004,12.499999999999996,12.500000000000000));
#104=CARTESIAN_POINT('',(-10.000000000000004,12.499999999999996,12.500000000000000));
#105=CARTESIAN_POINT('',(-10.000000000000004,14.099999999999996,14.100000000000000));
#106=CARTESIAN_POINT('',(-10.000000000000004,15.699999999999996,15.699999999999999));
#107=CARTESIAN_POINT('',(-8.400000000000004,15.699999999999996,15.699999999999998));
#108=CARTESIAN_POINT('',(-8.400000000000004,-1.530758E-015,12.500000000000002));
#109=CARTESIAN_POINT('',(-10.000000000000004,-1.530758E-015,12.500000000000000));
#110=CARTESIAN_POINT('',(-10.000000000000004,-1.726695E-015,14.100000000000001));
#111=CARTESIAN_POINT('',(-10.000000000000004,-1.922632E-015,15.700000000000001));
#112=CARTESIAN_POINT('',(-8.400000000000004,-1.922632E-015,15.700000000000001));
#120=(BOUNDED_SURFACE()B_SPLINE_SURFACE(2,2,((#68,#73,#78,#83,#88,#93,#98,#103,#108),(#69,#74,#79,#84,#89,#94,#99,#104,#109),(#70,#75,#80,#85,#90,#95,#100,#105,#110),(#71,#76,#81,#86,#91,#96,#101,#106,#111),(#72,#77,#82,#87,#92,#97,#102,#107,#112)),.UNSPECIFIED.,.F.,.T.,.U.)B_SPLINE_SURFACE_WITH_KNOTS((3,2,3),(3,2,2,2,3),(-3.141592653589793,-1.570796326794897,0.0),(0.0,1.570796326794897,3.141592653589793,4.712388980384690,6.283185307179586),.UNSPECIFIED.)GEOMETRIC_REPRESENTATION_ITEM()RATIONAL_B_SPLINE_SURFACE(((1.0,0.707106781186548,1.0,0.707106781186548,1.0,0.707106781186548,1.0,0.707106781186548,1.0),(0.707106781186547,0.500000000000000,0.707106781186547,0.500000000000000,0.707106781186547,0.500000000000000,0.707106781186547,0.500000000000000,0.707106781186547),(1.0,0.707106781186548,1.0,0.707106781186548,1.0,0.707106781186548,1.0,0.707106781186548,1.0),(0.707106781186547,0.500000000000000,0.707106781186547,0.500000000000000,0.707106781186547,0.500000000000000,0.707106781186547,0.500000000000000,0.707106781186547),(1.0,0.707106781186548,1.0,0.707106781186548,1.0,0.707106781186548,1.0,0.707106781186548,1.0)))REPRESENTATION_ITEM('')SURFACE());
#121=CARTESIAN_POINT('',(-10.000000000000004,14.100000000000001,0.0));
#122=VERTEX_POINT('',#121);
#123=CARTESIAN_POINT('',(-10.000000000000004,0.0,0.0));
#124=DIRECTION('',(1.0,0.0,0.0));
#125=DIRECTION('',(0.0,-1.0,0.0));
#126=AXIS2_PLACEMENT_3D('',#123,#124,#125);
#127=CIRCLE('',#126,14.100000000000001);
#128=EDGE_CURVE('',#122,#122,#127,.T.);
#129=ORIENTED_EDGE('',*,*,#128,.T.);
#130=EDGE_LOOP('',(#129));
#131=FACE_OUTER_BOUND('',#130,.T.);
#132=CARTESIAN_POINT('',(-8.400000000000004,12.500000000000000,-3.061516E-015));
#133=VERTEX_POINT('',#132);
#134=CARTESIAN_POINT('',(-8.400000000000004,0.0,0.0));
#135=DIRECTION('',(-1.0,0.0,0.0));
#136=DIRECTION('',(0.0,-1.0,0.0));
#137=AXIS2_PLACEMENT_3D('',#134,#135,#136);
#138=CIRCLE('',#137,12.500000000000000);
#139=EDGE_CURVE('',#133,#133,#138,.T.);
#140=ORIENTED_EDGE('',*,*,#139,.T.);
#141=EDGE_LOOP('',(#140));
#142=FACE_BOUND('',#141,.T.);
#143=ADVANCED_FACE('',(#131,#142),#120,.T.);
#144=CARTESIAN_POINT('',(-10.000000000000004,16.500000000000000,0.0));
#145=DIRECTION('',(1.0,0.0,0.0));
#146=DIRECTION('',(0.0,0.0,-1.0));
#147=AXIS2_PLACEMENT_3D('',#144,#145,#146);
#148=PLANE('',#147);
#149=CARTESIAN_POINT('',(-10.000000000000004,20.500000000000000,0.0));
#150=VERTEX_POINT('',#149);
#151=CARTESIAN_POINT('',(-10.000000000000004,0.0,0.0));
#152=DIRECTION('',(1.0,0.0,0.0));
#153=DIRECTION('',(0.0,1.0,0.0));
#154=AXIS2_PLACEMENT_3D('',#151,#152,#153);
#155=CIRCLE('',#154,20.500000000000000);
#156=EDGE_CURVE('',#150,#150,#155,.T.);
#157=ORIENTED_EDGE('',*,*,#156,.T.);
#158=EDGE_LOOP('',(#157));
#159=FACE_OUTER_BOUND('',#158,.T.);
#160=ORIENTED_EDGE('',*,*,#128,.F.);
#161=EDGE_LOOP('',(#160));
#162=FACE_BOUND('',#161,.T.);
#163=ADVANCED_FACE('',(#159,#162),#148,.T.);
#164=CARTESIAN_POINT('',(-5.433012701892222,0.0,0.0));
#165=DIRECTION('',(1.0,0.0,0.0));
#166=DIRECTION('',(0.0,1.0,0.0));
#167=AXIS2_PLACEMENT_3D('',#164,#165,#166);
#168=CYLINDRICAL_SURFACE('',#167,12.500000000000000);
#169=CARTESIAN_POINT('',(-0.866025403784441,12.500000000000000,0.0));
#170=VERTEX_POINT('',#169);
#171=CARTESIAN_POINT('',(-0.866025403784441,0.0,0.0));
#172=DIRECTION('',(1.0,0.0,0.0));
#173=DIRECTION('',(0.0,1.0,0.0));
#174=AXIS2_PLACEMENT_3D('',#171,#172,#173);
#175=CIRCLE('',#174,12.500000000000000);
#176=EDGE_CURVE('',#170,#170,#175,.T.);
#177=ORIENTED_EDGE('',*,*,#176,.F.);
#178=EDGE_LOOP('',(#177));
#179=FACE_OUTER_BOUND('',#178,.T.);
#180=ORIENTED_EDGE('',*,*,#139,.F.);
#181=EDGE_LOOP('',(#180));
#182=FACE_BOUND('',#181,.T.);
#183=ADVANCED_FACE('',(#179,#182),#168,.T.);
#184=CARTESIAN_POINT('',(-17.803847577293368,0.0,0.0));
#185=DIRECTION('',(-1.0,0.0,0.0));
#186=DIRECTION('',(0.0,1.0,0.0));
#187=AXIS2_PLACEMENT_3D('',#184,#185,#186);
#188=CONICAL_SURFACE('',#187,12.999999999999996,29.999999999999986);
#189=CARTESIAN_POINT('',(-23.000000000000007,15.999999999999998,0.0));
#190=VERTEX_POINT('',#189);
#191=CARTESIAN_POINT('',(-23.000000000000007,0.0,0.0));
#192=DIRECTION('',(1.0,0.0,0.0));
#193=DIRECTION('',(0.0,1.0,0.0));
#194=AXIS2_PLACEMENT_3D('',#191,#192,#193);
#195=CIRCLE('',#194,15.999999999999998);
#196=EDGE_CURVE('',#190,#190,#195,.T.);
#197=ORIENTED_EDGE('',*,*,#196,.F.);
#198=EDGE_LOOP('',(#197));
#199=FACE_OUTER_BOUND('',#198,.T.);
#200=CARTESIAN_POINT('',(-12.607695154586729,9.999999999999995,0.0));
#201=VERTEX_POINT('',#200);
#202=CARTESIAN_POINT('',(-12.607695154586729,0.0,0.0));
#203=DIRECTION('',(1.0,0.0,0.0));
#204=DIRECTION('',(0.0,1.0,0.0));
#205=AXIS2_PLACEMENT_3D('',#202,#203,#204);
#206=CIRCLE('',#205,9.999999999999995);
#207=EDGE_CURVE('',#201,#201,#206,.T.);
#208=ORIENTED_EDGE('',*,*,#207,.T.);
#209=EDGE_LOOP('',(#208));
#210=FACE_BOUND('',#209,.T.);
#211=ADVANCED_FACE('',(#199,#210),#188,.F.);
#212=CARTESIAN_POINT('',(-23.000000000000007,16.250000000000000,0.0));
#213=DIRECTION('',(-1.0,0.0,0.0));
#214=DIRECTION('',(0.0,0.0,1.0));
#215=AXIS2_PLACEMENT_3D('',#212,#213,#214);
#216=PLANE('',#215);
#217=CARTESIAN_POINT('',(-23.000000000000007,16.500000000000000,0.0));
#218=VERTEX_POINT('',#217);
#219=CARTESIAN_POINT('',(-23.000000000000007,0.0,0.0));
#220=DIRECTION('',(1.0,0.0,0.0));
#221=DIRECTION('',(0.0,1.0,0.0));
#222=AXIS2_PLACEMENT_3D('',#219,#220,#221);
#223=CIRCLE('',#222,16.500000000000000);
#224=EDGE_CURVE('',#218,#218,#223,.T.);
#225=ORIENTED_EDGE('',*,*,#224,.F.);
#226=EDGE_LOOP('',(#225));
#227=FACE_OUTER_BOUND('',#226,.T.);
#228=ORIENTED_EDGE('',*,*,#196,.T.);
#229=EDGE_LOOP('',(#228));
#230=FACE_BOUND('',#229,.T.);
#231=ADVANCED_FACE('',(#227,#230),#216,.T.);
#232=CARTESIAN_POINT('',(-22.739273682649383,0.0,0.0));
#233=DIRECTION('',(1.0,0.0,0.0));
#234=DIRECTION('',(0.0,1.0,0.0));
#235=AXIS2_PLACEMENT_3D('',#232,#233,#234);
#236=CONICAL_SURFACE('',#235,19.480115444024023,85.000000000000085);
#237=CARTESIAN_POINT('',(-22.478547365298756,22.460230888048049,0.0));
#238=VERTEX_POINT('',#237);
#239=CARTESIAN_POINT('',(-22.478547365298756,0.0,0.0));
#240=DIRECTION('',(1.0,0.0,0.0));
#241=DIRECTION('',(0.0,1.0,0.0));
#242=AXIS2_PLACEMENT_3D('',#239,#240,#241);
#243=CIRCLE('',#242,22.460230888048049);
#244=EDGE_CURVE('',#238,#238,#243,.T.);
#245=ORIENTED_EDGE('',*,*,#244,.F.);
#246=EDGE_LOOP('',(#245));
#247=FACE_OUTER_BOUND('',#246,.T.);
#248=ORIENTED_EDGE('',*,*,#224,.T.);
#249=EDGE_LOOP('',(#248));
#250=FACE_BOUND('',#249,.T.);
#251=ADVANCED_FACE('',(#247,#250),#236,.T.);
#252=CARTESIAN_POINT('',(-17.739273682649383,0.0,0.0));
#253=DIRECTION('',(1.0,0.0,0.0));
#254=DIRECTION('',(0.0,1.0,0.0));
#255=AXIS2_PLACEMENT_3D('',#252,#253,#254);
#256=CONICAL_SURFACE('',#255,23.730115444024023,15.000000000000034);
#257=CARTESIAN_POINT('',(-13.000000000000011,25.0,0.0));
#258=VERTEX_POINT('',#257);
#259=CARTESIAN_POINT('',(-13.000000000000011,0.0,0.0));
#260=DIRECTION('',(1.0,0.0,0.0));
#261=DIRECTION('',(0.0,1.0,0.0));
#262=AXIS2_PLACEMENT_3D('',#259,#260,#261);
#263=CIRCLE('',#262,25.0);
#264=EDGE_CURVE('',#258,#258,#263,.T.);
#265=ORIENTED_EDGE('',*,*,#264,.F.);
#266=EDGE_LOOP('',(#265));
#267=FACE_OUTER_BOUND('',#266,.T.);
#268=ORIENTED_EDGE('',*,*,#244,.T.);
#269=EDGE_LOOP('',(#268));
#270=FACE_BOUND('',#269,.T.);
#271=ADVANCED_FACE('',(#267,#270),#256,.T.);
#272=CARTESIAN_POINT('',(-13.000000000000011,22.750000000000000,0.0));
#273=DIRECTION('',(1.0,0.0,0.0));
#274=DIRECTION('',(0.0,0.0,-1.0));
#275=AXIS2_PLACEMENT_3D('',#272,#273,#274);
#276=PLANE('',#275);
#277=ORIENTED_EDGE('',*,*,#264,.T.);
#278=EDGE_LOOP('',(#277));
#279=FACE_OUTER_BOUND('',#278,.T.);
#280=CARTESIAN_POINT('',(-13.000000000000009,20.500000000000000,0.0));
#281=VERTEX_POINT('',#280);
#282=CARTESIAN_POINT('',(-13.000000000000009,0.0,0.0));
#283=DIRECTION('',(1.0,0.0,0.0));
#284=DIRECTION('',(0.0,1.0,0.0));
#285=AXIS2_PLACEMENT_3D('',#282,#283,#284);
#286=CIRCLE('',#285,20.500000000000000);
#287=EDGE_CURVE('',#281,#281,#286,.T.);
#288=ORIENTED_EDGE('',*,*,#287,.F.);
#289=EDGE_LOOP('',(#288));
#290=FACE_BOUND('',#289,.T.);
#291=ADVANCED_FACE('',(#279,#290),#276,.T.);
#292=CARTESIAN_POINT('',(-11.500000000000007,0.0,0.0));
#293=DIRECTION('',(1.0,0.0,0.0));
#294=DIRECTION('',(0.0,1.0,0.0));
#295=AXIS2_PLACEMENT_3D('',#292,#293,#294);
#296=CYLINDRICAL_SURFACE('',#295,20.500000000000000);
#297=ORIENTED_EDGE('',*,*,#156,.F.);
#298=EDGE_LOOP('',(#297));
#299=FACE_OUTER_BOUND('',#298,.T.);
#300=ORIENTED_EDGE('',*,*,#287,.T.);
#301=EDGE_LOOP('',(#300));
#302=FACE_BOUND('',#301,.T.);
#303=ADVANCED_FACE('',(#299,#302),#296,.T.);
#304=CARTESIAN_POINT('',(-0.433012701892222,0.0,0.0));
#305=DIRECTION('',(-1.0,0.0,0.0));
#306=DIRECTION('',(0.0,1.0,0.0));
#307=AXIS2_PLACEMENT_3D('',#304,#305,#306);
#308=CONICAL_SURFACE('',#307,11.750000000000000,59.999999999999993);
#309=CARTESIAN_POINT('',(-2.220446E-015,11.0,0.0));
#310=VERTEX_POINT('',#309);
#311=CARTESIAN_POINT('',(-2.220446E-015,0.0,0.0));
#312=DIRECTION('',(1.0,0.0,0.0));
#313=DIRECTION('',(0.0,1.0,0.0));
#314=AXIS2_PLACEMENT_3D('',#311,#312,#313);
#315=CIRCLE('',#314,11.0);
#316=EDGE_CURVE('',#310,#310,#315,.T.);
#317=ORIENTED_EDGE('',*,*,#316,.F.);
#318=EDGE_LOOP('',(#317));
#319=FACE_OUTER_BOUND('',#318,.T.);
#320=ORIENTED_EDGE('',*,*,#176,.T.);
#321=EDGE_LOOP('',(#320));
#322=FACE_BOUND('',#321,.T.);
#323=ADVANCED_FACE('',(#319,#322),#308,.T.);
#324=CARTESIAN_POINT('',(-2.220446E-015,10.500000000000000,0.0));
#325=DIRECTION('',(1.0,0.0,0.0));
#326=DIRECTION('',(0.0,0.0,-1.0));
#327=AXIS2_PLACEMENT_3D('',#324,#325,#326);
#328=PLANE('',#327);
#329=ORIENTED_EDGE('',*,*,#316,.T.);
#330=EDGE_LOOP('',(#329));
#331=FACE_OUTER_BOUND('',#330,.T.);
#332=CARTESIAN_POINT('',(-2.220446E-015,10.0,0.0));
#333=VERTEX_POINT('',#332);
#334=CARTESIAN_POINT('',(-2.220446E-015,0.0,0.0));
#335=DIRECTION('',(1.0,0.0,0.0));
#336=DIRECTION('',(0.0,1.0,0.0));
#337=AXIS2_PLACEMENT_3D('',#334,#335,#336);
#338=CIRCLE('',#337,10.0);
#339=EDGE_CURVE('',#333,#333,#338,.T.);
#340=ORIENTED_EDGE('',*,*,#339,.F.);
#341=EDGE_LOOP('',(#340));
#342=FACE_BOUND('',#341,.T.);
#343=ADVANCED_FACE('',(#331,#342),#328,.T.);
#344=CARTESIAN_POINT('',(-6.303847577293365,0.0,0.0));
#345=DIRECTION('',(1.0,0.0,0.0));
#346=DIRECTION('',(0.0,1.0,0.0));
#347=AXIS2_PLACEMENT_3D('',#344,#345,#346);
#348=CYLINDRICAL_SURFACE('',#347,9.999999999999998);
#349=ORIENTED_EDGE('',*,*,#207,.F.);
#350=EDGE_LOOP('',(#349));
#351=FACE_OUTER_BOUND('',#350,.T.);
#352=ORIENTED_EDGE('',*,*,#339,.T.);
#353=EDGE_LOOP('',(#352));
#354=FACE_BOUND('',#353,.T.);
#355=ADVANCED_FACE('',(#351,#354),#348,.F.);
#356=CLOSED_SHELL('',(#143,#163,#183,#211,#231,#251,#271,#291,#303,#323,#343,#355));
#357=MANIFOLD_SOLID_BREP('',#356);
#358=COLOUR_RGB('Metall - Stahl',0.639216005802155,0.639216005802155,0.686275005340576);
#359=FILL_AREA_STYLE_COLOUR('Metall - Stahl',#358);
#360=FILL_AREA_STYLE('Metall - Stahl',(#359));
#361=SURFACE_STYLE_FILL_AREA(#360);
#362=SURFACE_SIDE_STYLE('Metall - Stahl',(#361));
#363=SURFACE_STYLE_USAGE(.BOTH.,#362);
#364=PRESENTATION_STYLE_ASSIGNMENT((#363));
#365=STYLED_ITEM('',(#364),#357);
#366=MECHANICAL_DESIGN_GEOMETRIC_PRESENTATION_REPRESENTATION('',(#365),#36);
#367=ADVANCED_BREP_SHAPE_REPRESENTATION('ABSR',(#357),#36);
#368=SHAPE_REPRESENTATION_RELATIONSHIP('SRR','None',#367,#41);
ENDSEC;
END-ISO-10303-21;
