ISO-10303-21;
HEADER;
/****************************************************************
 * Generated by software with PDE/Lib inside                    *
 * PDElib Version v51a, created Thu 12/14/2006                  *
 * International Technegroup Inc. (www.iti-oh.com)              *
 ****************************************************************/
FILE_DESCRIPTION((''),'2;1');
FILE_NAME('T:\\Arbeitspl\S\dtze\\Aushilfe\\KPeters\\3D\\Steps 08_10\\12800\\12800065X.stp','2010-08-05T14:26:07',('thilbrands'),(''),'Autodesk Inventor 2008','Autodesk Inventor 2008','');
FILE_SCHEMA(('AUTOMOTIVE_DESIGN { 1 0 10303 214 1 1 1 1 }'));
ENDSEC;
DATA;
#5=APPLICATION_CONTEXT('automotive design');
#6=APPLICATION_PROTOCOL_DEFINITION('International Standard','automotive_design',2001,#5);
#7=PRODUCT_CONTEXT('',#5,'mechanical');
#8=PRODUCT('ENG-005067','ENG-005067',$,(#7));
#9=PRODUCT_RELATED_PRODUCT_CATEGORY('part',$,(#8));
#10=PRODUCT_DEFINITION_FORMATION('',$,#8);
#11=PRODUCT_DEFINITION_CONTEXT('part definition',#5,'design');
#12=PRODUCT_DEFINITION('',$,#10,#11);
#18=(NAMED_UNIT(*)PLANE_ANGLE_UNIT()SI_UNIT($,.RADIAN.));
#19=DIMENSIONAL_EXPONENTS(0.0,0.0,0.0,0.0,0.0,0.0,0.0);
#20=PLANE_ANGLE_MEASURE_WITH_UNIT(PLANE_ANGLE_MEASURE(0.017453292500000),#18);
#24=(CONVERSION_BASED_UNIT('DEGREE',#20)NAMED_UNIT(#19)PLANE_ANGLE_UNIT());
#28=(NAMED_UNIT(*)SI_UNIT($,.STERADIAN.)SOLID_ANGLE_UNIT());
#32=(LENGTH_UNIT()NAMED_UNIT(*)SI_UNIT(.MILLI.,.METRE.));
#34=UNCERTAINTY_MEASURE_WITH_UNIT(LENGTH_MEASURE(0.010000000000000),#32,'DISTANCE_ACCURACY_VALUE','');
#36=(GEOMETRIC_REPRESENTATION_CONTEXT(3)GLOBAL_UNCERTAINTY_ASSIGNED_CONTEXT((#34))GLOBAL_UNIT_ASSIGNED_CONTEXT((#24,#28,#32))REPRESENTATION_CONTEXT('None','None'));
#37=AXIS2_PLACEMENT_3D('',#38,#39,#40);
#38=CARTESIAN_POINT('',(0.0,0.0,0.0));
#39=DIRECTION('',(0.0,0.0,1.0));
#40=DIRECTION('',(1.0,0.0,0.0));
#41=SHAPE_REPRESENTATION('',(#37),#36);
#42=PRODUCT_DEFINITION_SHAPE('','',#12);
#43=SHAPE_DEFINITION_REPRESENTATION(#42,#41);
#49=(NAMED_UNIT(*)PLANE_ANGLE_UNIT()SI_UNIT($,.RADIAN.));
#50=DIMENSIONAL_EXPONENTS(0.0,0.0,0.0,0.0,0.0,0.0,0.0);
#51=PLANE_ANGLE_MEASURE_WITH_UNIT(PLANE_ANGLE_MEASURE(0.017453292500000),#49);
#55=(CONVERSION_BASED_UNIT('DEGREE',#51)NAMED_UNIT(#50)PLANE_ANGLE_UNIT());
#59=(NAMED_UNIT(*)SI_UNIT($,.STERADIAN.)SOLID_ANGLE_UNIT());
#63=(LENGTH_UNIT()NAMED_UNIT(*)SI_UNIT(.MILLI.,.METRE.));
#65=UNCERTAINTY_MEASURE_WITH_UNIT(LENGTH_MEASURE(0.000001000000000),#63,'DISTANCE_ACCURACY_VALUE','');
#67=(GEOMETRIC_REPRESENTATION_CONTEXT(3)GLOBAL_UNCERTAINTY_ASSIGNED_CONTEXT((#65))GLOBAL_UNIT_ASSIGNED_CONTEXT((#55,#59,#63))REPRESENTATION_CONTEXT('','3D'));
#68=CARTESIAN_POINT('',(54.951125461028397,9.758130E-015,0.0));
#69=DIRECTION('',(-1.0,-1.776125E-016,0.0));
#70=DIRECTION('',(0.0,-1.0,0.0));
#71=AXIS2_PLACEMENT_3D('',#68,#69,#70);
#72=CONICAL_SURFACE('',#71,46.250000000000007,49.999999999999964);
#73=CARTESIAN_POINT('',(53.902250922056808,-47.500000000000000,0.0));
#74=VERTEX_POINT('',#73);
#75=CARTESIAN_POINT('',(53.902250922056808,0.0,0.0));
#76=DIRECTION('',(-1.0,0.0,0.0));
#77=DIRECTION('',(0.0,-1.0,0.0));
#78=AXIS2_PLACEMENT_3D('',#75,#76,#77);
#79=CIRCLE('',#78,47.500000000000000);
#80=EDGE_CURVE('',#74,#74,#79,.T.);
#81=ORIENTED_EDGE('',*,*,#80,.F.);
#82=EDGE_LOOP('',(#81));
#83=FACE_OUTER_BOUND('',#82,.T.);
#84=CARTESIAN_POINT('',(56.000000000000014,-44.999999999999993,0.0));
#85=VERTEX_POINT('',#84);
#86=CARTESIAN_POINT('',(56.000000000000007,9.944424E-015,0.0));
#87=DIRECTION('',(1.0,0.0,0.0));
#88=DIRECTION('',(0.0,-1.0,0.0));
#89=AXIS2_PLACEMENT_3D('',#86,#87,#88);
#90=CIRCLE('',#89,45.0);
#91=EDGE_CURVE('',#85,#85,#90,.T.);
#92=ORIENTED_EDGE('',*,*,#91,.F.);
#93=EDGE_LOOP('',(#92));
#94=FACE_BOUND('',#93,.T.);
#95=ADVANCED_FACE('',(#83,#94),#72,.T.);
#96=CARTESIAN_POINT('',(40.352653961416934,7.165259E-015,0.0));
#97=DIRECTION('',(1.0,1.776125E-016,0.0));
#98=DIRECTION('',(0.0,-1.0,0.0));
#99=AXIS2_PLACEMENT_3D('',#96,#97,#98);
#100=CONICAL_SURFACE('',#99,45.500000000000014,80.000000000000099);
#101=CARTESIAN_POINT('',(40.0,-17.095320997278748,-40.000000000000007));
#102=VERTEX_POINT('',#101);
#103=CARTESIAN_POINT('',(40.0,-17.095320997278748,40.000000000000007));
#104=VERTEX_POINT('',#103);
#105=CARTESIAN_POINT('',(40.000000000000014,0.0,0.0));
#106=DIRECTION('',(-1.0,0.0,0.0));
#107=DIRECTION('',(0.0,-1.0,0.0));
#108=AXIS2_PLACEMENT_3D('',#105,#106,#107);
#109=CIRCLE('',#108,43.500000000000007);
#110=EDGE_CURVE('',#102,#104,#109,.T.);
#111=ORIENTED_EDGE('',*,*,#110,.F.);
#112=CARTESIAN_POINT('',(40.0,17.095320997278748,-40.000000000000007));
#113=VERTEX_POINT('',#112);
#114=CARTESIAN_POINT('',(40.000000000000007,7.102623E-015,0.0));
#115=DIRECTION('',(-1.0,0.0,0.0));
#116=DIRECTION('',(0.0,-1.0,0.0));
#117=AXIS2_PLACEMENT_3D('',#114,#115,#116);
#118=CIRCLE('',#117,43.500000000000021);
#119=EDGE_CURVE('',#113,#102,#118,.T.);
#120=ORIENTED_EDGE('',*,*,#119,.F.);
#121=CARTESIAN_POINT('',(40.0,17.095320997278748,40.000000000000007));
#122=VERTEX_POINT('',#121);
#123=CARTESIAN_POINT('',(40.000000000000014,0.0,0.0));
#124=DIRECTION('',(-1.0,0.0,0.0));
#125=DIRECTION('',(0.0,-1.0,0.0));
#126=AXIS2_PLACEMENT_3D('',#123,#124,#125);
#127=CIRCLE('',#126,43.500000000000007);
#128=EDGE_CURVE('',#122,#113,#127,.T.);
#129=ORIENTED_EDGE('',*,*,#128,.F.);
#130=CARTESIAN_POINT('',(40.000000000000007,7.102623E-015,0.0));
#131=DIRECTION('',(-1.0,0.0,0.0));
#132=DIRECTION('',(0.0,-1.0,0.0));
#133=AXIS2_PLACEMENT_3D('',#130,#131,#132);
#134=CIRCLE('',#133,43.500000000000021);
#135=EDGE_CURVE('',#104,#122,#134,.T.);
#136=ORIENTED_EDGE('',*,*,#135,.F.);
#137=EDGE_LOOP('',(#111,#120,#129,#136));
#138=FACE_OUTER_BOUND('',#137,.T.);
#139=CARTESIAN_POINT('',(40.705307922833867,-47.500000000000000,0.0));
#140=VERTEX_POINT('',#139);
#141=CARTESIAN_POINT('',(40.705307922833860,0.0,0.0));
#142=DIRECTION('',(1.0,0.0,0.0));
#143=DIRECTION('',(0.0,-1.0,0.0));
#144=AXIS2_PLACEMENT_3D('',#141,#142,#143);
#145=CIRCLE('',#144,47.500000000000000);
#146=EDGE_CURVE('',#140,#140,#145,.T.);
#147=ORIENTED_EDGE('',*,*,#146,.F.);
#148=EDGE_LOOP('',(#147));
#149=FACE_BOUND('',#148,.T.);
#150=ADVANCED_FACE('',(#138,#149),#100,.T.);
#151=CARTESIAN_POINT('',(40.000000000000014,-45.500000000000007,0.0));
#152=DIRECTION('',(-1.0,0.0,0.0));
#153=DIRECTION('',(0.0,0.0,1.0));
#154=AXIS2_PLACEMENT_3D('',#151,#152,#153);
#155=PLANE('',#154);
#156=ORIENTED_EDGE('',*,*,#119,.T.);
#157=CARTESIAN_POINT('',(40.0,-17.095320997278748,-40.000000000000007));
#158=DIRECTION('',(0.0,1.0,0.0));
#159=VECTOR('',#158,34.190641994557495);
#160=LINE('',#157,#159);
#161=EDGE_CURVE('',#102,#113,#160,.T.);
#162=ORIENTED_EDGE('',*,*,#161,.T.);
#163=EDGE_LOOP('',(#156,#162));
#164=FACE_OUTER_BOUND('',#163,.T.);
#165=ADVANCED_FACE('',(#164),#155,.T.);
#166=CARTESIAN_POINT('',(40.000000000000014,-45.500000000000007,0.0));
#167=DIRECTION('',(-1.0,0.0,0.0));
#168=DIRECTION('',(0.0,0.0,1.0));
#169=AXIS2_PLACEMENT_3D('',#166,#167,#168);
#170=PLANE('',#169);
#171=ORIENTED_EDGE('',*,*,#135,.T.);
#172=CARTESIAN_POINT('',(40.0,-17.095320997278748,40.000000000000007));
#173=DIRECTION('',(0.0,1.0,0.0));
#174=VECTOR('',#173,34.190641994557495);
#175=LINE('',#172,#174);
#176=EDGE_CURVE('',#104,#122,#175,.T.);
#177=ORIENTED_EDGE('',*,*,#176,.F.);
#178=EDGE_LOOP('',(#171,#177));
#179=FACE_OUTER_BOUND('',#178,.T.);
#180=ADVANCED_FACE('',(#179),#170,.T.);
#181=CARTESIAN_POINT('',(18.269144221244598,0.0,0.0));
#182=DIRECTION('',(-1.0,0.0,0.0));
#183=DIRECTION('',(0.0,-1.0,0.0));
#184=AXIS2_PLACEMENT_3D('',#181,#182,#183);
#185=CONICAL_SURFACE('',#184,36.721000000000004,49.999999999999979);
#186=CARTESIAN_POINT('',(17.538288442489186,-37.591999999999999,0.0));
#187=VERTEX_POINT('',#186);
#188=CARTESIAN_POINT('',(17.538288442489190,0.0,0.0));
#189=DIRECTION('',(-1.0,0.0,0.0));
#190=DIRECTION('',(0.0,-1.0,0.0));
#191=AXIS2_PLACEMENT_3D('',#188,#189,#190);
#192=CIRCLE('',#191,37.591999999999999);
#193=EDGE_CURVE('',#187,#187,#192,.T.);
#194=ORIENTED_EDGE('',*,*,#193,.F.);
#195=EDGE_LOOP('',(#194));
#196=FACE_OUTER_BOUND('',#195,.T.);
#197=CARTESIAN_POINT('',(19.000000000000007,-35.850000000000001,0.0));
#198=VERTEX_POINT('',#197);
#199=CARTESIAN_POINT('',(19.000000000000007,0.0,0.0));
#200=DIRECTION('',(-1.0,0.0,0.0));
#201=DIRECTION('',(0.0,-1.0,0.0));
#202=AXIS2_PLACEMENT_3D('',#199,#200,#201);
#203=CIRCLE('',#202,35.850000000000001);
#204=EDGE_CURVE('',#198,#198,#203,.T.);
#205=ORIENTED_EDGE('',*,*,#204,.T.);
#206=EDGE_LOOP('',(#205));
#207=FACE_BOUND('',#206,.T.);
#208=ADVANCED_FACE('',(#196,#207),#185,.T.);
#209=CARTESIAN_POINT('',(0.730855778755418,0.0,0.0));
#210=DIRECTION('',(1.0,0.0,0.0));
#211=DIRECTION('',(0.0,-1.0,0.0));
#212=AXIS2_PLACEMENT_3D('',#209,#210,#211);
#213=CONICAL_SURFACE('',#212,36.721000000000004,49.999999999999979);
#214=CARTESIAN_POINT('',(8.881784E-015,-35.850000000000001,0.0));
#215=VERTEX_POINT('',#214);
#216=CARTESIAN_POINT('',(6.938894E-015,0.0,0.0));
#217=DIRECTION('',(-1.0,0.0,0.0));
#218=DIRECTION('',(0.0,-1.0,0.0));
#219=AXIS2_PLACEMENT_3D('',#216,#217,#218);
#220=CIRCLE('',#219,35.850000000000001);
#221=EDGE_CURVE('',#215,#215,#220,.T.);
#222=ORIENTED_EDGE('',*,*,#221,.F.);
#223=EDGE_LOOP('',(#222));
#224=FACE_OUTER_BOUND('',#223,.T.);
#225=CARTESIAN_POINT('',(1.461711557510828,-37.591999999999999,0.0));
#226=VERTEX_POINT('',#225);
#227=CARTESIAN_POINT('',(1.461711557510826,0.0,0.0));
#228=DIRECTION('',(1.0,0.0,0.0));
#229=DIRECTION('',(0.0,-1.0,0.0));
#230=AXIS2_PLACEMENT_3D('',#227,#228,#229);
#231=CIRCLE('',#230,37.591999999999999);
#232=EDGE_CURVE('',#226,#226,#231,.T.);
#233=ORIENTED_EDGE('',*,*,#232,.F.);
#234=EDGE_LOOP('',(#233));
#235=FACE_BOUND('',#234,.T.);
#236=ADVANCED_FACE('',(#224,#235),#213,.T.);
#237=CARTESIAN_POINT('',(25.000000000000007,17.095320997278748,40.000000000000007));
#238=CARTESIAN_POINT('',(40.0,17.095320997278748,40.000000000000007));
#239=CARTESIAN_POINT('',(25.000000000000007,-17.095320997278748,40.000000000000007));
#240=CARTESIAN_POINT('',(39.999999999999993,-17.095320997278748,40.000000000000007));
#241=B_SPLINE_SURFACE_WITH_KNOTS('',1,1,((#237,#239),(#238,#240)),.UNSPECIFIED.,.F.,.F.,.U.,(2,2),(2,2),(0.0,14.999999999999993),(0.0,34.190641994557495),.UNSPECIFIED.);
#242=CARTESIAN_POINT('',(25.000000000000007,-17.095320997278748,40.000000000000007));
#243=VERTEX_POINT('',#242);
#244=CARTESIAN_POINT('',(40.0,-17.095320997278748,40.000000000000007));
#245=DIRECTION('',(-1.0,0.0,0.0));
#246=VECTOR('',#245,14.999999999999993);
#247=LINE('',#244,#246);
#248=EDGE_CURVE('',#104,#243,#247,.T.);
#249=ORIENTED_EDGE('',*,*,#248,.F.);
#250=ORIENTED_EDGE('',*,*,#176,.T.);
#251=CARTESIAN_POINT('',(25.000000000000007,17.095320997278748,40.000000000000007));
#252=VERTEX_POINT('',#251);
#253=CARTESIAN_POINT('',(25.000000000000007,17.095320997278748,40.000000000000007));
#254=DIRECTION('',(1.0,0.0,0.0));
#255=VECTOR('',#254,14.999999999999993);
#256=LINE('',#253,#255);
#257=EDGE_CURVE('',#252,#122,#256,.T.);
#258=ORIENTED_EDGE('',*,*,#257,.F.);
#259=CARTESIAN_POINT('',(25.000000000000007,-17.095320997278748,40.000000000000007));
#260=DIRECTION('',(0.0,1.0,0.0));
#261=VECTOR('',#260,34.190641994557495);
#262=LINE('',#259,#261);
#263=EDGE_CURVE('',#243,#252,#262,.T.);
#264=ORIENTED_EDGE('',*,*,#263,.F.);
#265=EDGE_LOOP('',(#249,#250,#258,#264));
#266=FACE_OUTER_BOUND('',#265,.T.);
#267=ADVANCED_FACE('',(#266),#241,.F.);
#268=CARTESIAN_POINT('',(25.000000000000007,17.095320997278748,43.500000000000007));
#269=CARTESIAN_POINT('',(25.000000000000007,17.095320997278748,40.000000000000007));
#270=CARTESIAN_POINT('',(25.000000000000007,-17.095320997278748,43.500000000000007));
#271=CARTESIAN_POINT('',(25.000000000000007,-17.095320997278748,40.000000000000007));
#272=B_SPLINE_SURFACE_WITH_KNOTS('',1,1,((#268,#270),(#269,#271)),.UNSPECIFIED.,.F.,.F.,.U.,(2,2),(2,2),(0.0,3.500000000000000),(0.0,34.190641994557495),.UNSPECIFIED.);
#273=CARTESIAN_POINT('',(25.000000000000007,0.0,0.0));
#274=DIRECTION('',(-1.0,0.0,0.0));
#275=DIRECTION('',(0.0,-1.0,0.0));
#276=AXIS2_PLACEMENT_3D('',#273,#274,#275);
#277=CIRCLE('',#276,43.500000000000007);
#278=EDGE_CURVE('',#243,#252,#277,.T.);
#279=ORIENTED_EDGE('',*,*,#278,.F.);
#280=ORIENTED_EDGE('',*,*,#263,.T.);
#281=EDGE_LOOP('',(#279,#280));
#282=FACE_OUTER_BOUND('',#281,.T.);
#283=ADVANCED_FACE('',(#282),#272,.F.);
#284=CARTESIAN_POINT('',(40.0,0.0,-40.000000000000007));
#285=DIRECTION('',(0.0,0.0,1.0));
#286=DIRECTION('',(1.0,0.0,0.0));
#287=AXIS2_PLACEMENT_3D('',#284,#285,#286);
#288=PLANE('',#287);
#289=CARTESIAN_POINT('',(25.000000000000007,-17.095320997278748,-40.000000000000007));
#290=VERTEX_POINT('',#289);
#291=CARTESIAN_POINT('',(25.000000000000007,-17.095320997278748,-40.000000000000007));
#292=DIRECTION('',(1.0,0.0,0.0));
#293=VECTOR('',#292,14.999999999999993);
#294=LINE('',#291,#293);
#295=EDGE_CURVE('',#290,#102,#294,.T.);
#296=ORIENTED_EDGE('',*,*,#295,.F.);
#297=CARTESIAN_POINT('',(25.000000000000007,17.095320997278748,-40.000000000000007));
#298=VERTEX_POINT('',#297);
#299=CARTESIAN_POINT('',(25.000000000000007,-17.095320997278748,-40.000000000000007));
#300=DIRECTION('',(0.0,1.0,0.0));
#301=VECTOR('',#300,34.190641994557495);
#302=LINE('',#299,#301);
#303=EDGE_CURVE('',#290,#298,#302,.T.);
#304=ORIENTED_EDGE('',*,*,#303,.T.);
#305=CARTESIAN_POINT('',(40.0,17.095320997278748,-40.000000000000007));
#306=DIRECTION('',(-1.0,0.0,0.0));
#307=VECTOR('',#306,14.999999999999993);
#308=LINE('',#305,#307);
#309=EDGE_CURVE('',#113,#298,#308,.T.);
#310=ORIENTED_EDGE('',*,*,#309,.F.);
#311=ORIENTED_EDGE('',*,*,#161,.F.);
#312=EDGE_LOOP('',(#296,#304,#310,#311));
#313=FACE_OUTER_BOUND('',#312,.T.);
#314=ADVANCED_FACE('',(#313),#288,.F.);
#315=CARTESIAN_POINT('',(25.000000000000007,0.0,-40.000000000000007));
#316=DIRECTION('',(-1.0,0.0,0.0));
#317=DIRECTION('',(0.0,0.0,1.0));
#318=AXIS2_PLACEMENT_3D('',#315,#316,#317);
#319=PLANE('',#318);
#320=CARTESIAN_POINT('',(25.000000000000007,0.0,0.0));
#321=DIRECTION('',(-1.0,0.0,0.0));
#322=DIRECTION('',(0.0,-1.0,0.0));
#323=AXIS2_PLACEMENT_3D('',#320,#321,#322);
#324=CIRCLE('',#323,43.500000000000007);
#325=EDGE_CURVE('',#298,#290,#324,.T.);
#326=ORIENTED_EDGE('',*,*,#325,.F.);
#327=ORIENTED_EDGE('',*,*,#303,.F.);
#328=EDGE_LOOP('',(#326,#327));
#329=FACE_OUTER_BOUND('',#328,.T.);
#330=ADVANCED_FACE('',(#329),#319,.F.);
#331=CARTESIAN_POINT('',(48.000000000000014,-34.250000000000007,0.0));
#332=DIRECTION('',(1.0,0.0,0.0));
#333=DIRECTION('',(0.0,0.0,-1.0));
#334=AXIS2_PLACEMENT_3D('',#331,#332,#333);
#335=PLANE('',#334);
#336=CARTESIAN_POINT('',(48.000000000000014,-35.500000000000007,0.0));
#337=VERTEX_POINT('',#336);
#338=CARTESIAN_POINT('',(48.000000000000014,0.0,0.0));
#339=DIRECTION('',(-1.0,0.0,0.0));
#340=DIRECTION('',(0.0,-1.0,0.0));
#341=AXIS2_PLACEMENT_3D('',#338,#339,#340);
#342=CIRCLE('',#341,35.500000000000007);
#343=EDGE_CURVE('',#337,#337,#342,.T.);
#344=ORIENTED_EDGE('',*,*,#343,.F.);
#345=EDGE_LOOP('',(#344));
#346=FACE_OUTER_BOUND('',#345,.T.);
#347=CARTESIAN_POINT('',(48.000000000000014,-33.0,0.0));
#348=VERTEX_POINT('',#347);
#349=CARTESIAN_POINT('',(48.000000000000014,0.0,0.0));
#350=DIRECTION('',(-1.0,0.0,0.0));
#351=DIRECTION('',(0.0,-1.0,0.0));
#352=AXIS2_PLACEMENT_3D('',#349,#350,#351);
#353=CIRCLE('',#352,33.0);
#354=EDGE_CURVE('',#348,#348,#353,.T.);
#355=ORIENTED_EDGE('',*,*,#354,.T.);
#356=EDGE_LOOP('',(#355));
#357=FACE_BOUND('',#356,.T.);
#358=ADVANCED_FACE('',(#346,#357),#335,.T.);
#359=CARTESIAN_POINT('',(46.250000000000014,0.0,0.0));
#360=DIRECTION('',(-1.0,0.0,0.0));
#361=DIRECTION('',(0.0,-1.0,0.0));
#362=AXIS2_PLACEMENT_3D('',#359,#360,#361);
#363=CYLINDRICAL_SURFACE('',#362,35.500000000000007);
#364=CARTESIAN_POINT('',(44.500000000000021,-35.500000000000000,0.0));
#365=VERTEX_POINT('',#364);
#366=CARTESIAN_POINT('',(44.500000000000021,0.0,0.0));
#367=DIRECTION('',(-1.0,0.0,0.0));
#368=DIRECTION('',(0.0,-1.0,0.0));
#369=AXIS2_PLACEMENT_3D('',#366,#367,#368);
#370=CIRCLE('',#369,35.500000000000000);
#371=EDGE_CURVE('',#365,#365,#370,.T.);
#372=ORIENTED_EDGE('',*,*,#371,.F.);
#373=EDGE_LOOP('',(#372));
#374=FACE_OUTER_BOUND('',#373,.T.);
#375=ORIENTED_EDGE('',*,*,#343,.T.);
#376=EDGE_LOOP('',(#375));
#377=FACE_BOUND('',#376,.T.);
#378=ADVANCED_FACE('',(#374,#377),#363,.T.);
#379=CARTESIAN_POINT('',(44.500000000000021,-37.950000000000003,0.0));
#380=DIRECTION('',(1.0,0.0,0.0));
#381=DIRECTION('',(0.0,0.0,-1.0));
#382=AXIS2_PLACEMENT_3D('',#379,#380,#381);
#383=PLANE('',#382);
#384=CARTESIAN_POINT('',(44.500000000000021,-40.399999999999999,0.0));
#385=VERTEX_POINT('',#384);
#386=CARTESIAN_POINT('',(44.500000000000021,0.0,0.0));
#387=DIRECTION('',(-1.0,0.0,0.0));
#388=DIRECTION('',(0.0,-1.0,0.0));
#389=AXIS2_PLACEMENT_3D('',#386,#387,#388);
#390=CIRCLE('',#389,40.399999999999999);
#391=EDGE_CURVE('',#385,#385,#390,.T.);
#392=ORIENTED_EDGE('',*,*,#391,.F.);
#393=EDGE_LOOP('',(#392));
#394=FACE_OUTER_BOUND('',#393,.T.);
#395=ORIENTED_EDGE('',*,*,#371,.T.);
#396=EDGE_LOOP('',(#395));
#397=FACE_BOUND('',#396,.T.);
#398=ADVANCED_FACE('',(#394,#397),#383,.T.);
#399=CARTESIAN_POINT('',(46.250000000000014,0.0,0.0));
#400=DIRECTION('',(-1.0,0.0,0.0));
#401=DIRECTION('',(0.0,-1.0,0.0));
#402=AXIS2_PLACEMENT_3D('',#399,#400,#401);
#403=CYLINDRICAL_SURFACE('',#402,40.399999999999999);
#404=CARTESIAN_POINT('',(48.000000000000014,-40.399999999999999,0.0));
#405=VERTEX_POINT('',#404);
#406=CARTESIAN_POINT('',(48.000000000000014,0.0,0.0));
#407=DIRECTION('',(-1.0,0.0,0.0));
#408=DIRECTION('',(0.0,-1.0,0.0));
#409=AXIS2_PLACEMENT_3D('',#406,#407,#408);
#410=CIRCLE('',#409,40.399999999999999);
#411=EDGE_CURVE('',#405,#405,#410,.T.);
#412=ORIENTED_EDGE('',*,*,#411,.F.);
#413=EDGE_LOOP('',(#412));
#414=FACE_OUTER_BOUND('',#413,.T.);
#415=ORIENTED_EDGE('',*,*,#391,.T.);
#416=EDGE_LOOP('',(#415));
#417=FACE_BOUND('',#416,.T.);
#418=ADVANCED_FACE('',(#414,#417),#403,.F.);
#419=CARTESIAN_POINT('',(52.000000000000014,0.0,0.0));
#420=DIRECTION('',(1.0,0.0,0.0));
#421=DIRECTION('',(0.0,-1.0,0.0));
#422=AXIS2_PLACEMENT_3D('',#419,#420,#421);
#423=CONICAL_SURFACE('',#422,41.471796769724492,15.000000000000009);
#424=CARTESIAN_POINT('',(56.000000000000014,-42.543593539448985,0.0));
#425=VERTEX_POINT('',#424);
#426=CARTESIAN_POINT('',(56.000000000000014,0.0,0.0));
#427=DIRECTION('',(-1.0,0.0,0.0));
#428=DIRECTION('',(0.0,-1.0,0.0));
#429=AXIS2_PLACEMENT_3D('',#426,#427,#428);
#430=CIRCLE('',#429,42.543593539448985);
#431=EDGE_CURVE('',#425,#425,#430,.T.);
#432=ORIENTED_EDGE('',*,*,#431,.F.);
#433=EDGE_LOOP('',(#432));
#434=FACE_OUTER_BOUND('',#433,.T.);
#435=ORIENTED_EDGE('',*,*,#411,.T.);
#436=EDGE_LOOP('',(#435));
#437=FACE_BOUND('',#436,.T.);
#438=ADVANCED_FACE('',(#434,#437),#423,.F.);
#439=CARTESIAN_POINT('',(56.000000000000014,-45.021796769724496,0.0));
#440=DIRECTION('',(1.0,0.0,0.0));
#441=DIRECTION('',(0.0,0.0,-1.0));
#442=AXIS2_PLACEMENT_3D('',#439,#440,#441);
#443=PLANE('',#442);
#444=ORIENTED_EDGE('',*,*,#91,.T.);
#445=EDGE_LOOP('',(#444));
#446=FACE_OUTER_BOUND('',#445,.T.);
#447=ORIENTED_EDGE('',*,*,#431,.T.);
#448=EDGE_LOOP('',(#447));
#449=FACE_BOUND('',#448,.T.);
#450=ADVANCED_FACE('',(#446,#449),#443,.T.);
#451=CARTESIAN_POINT('',(48.000000000000014,0.0,0.0));
#452=DIRECTION('',(-1.0,0.0,0.0));
#453=DIRECTION('',(0.0,-1.0,0.0));
#454=AXIS2_PLACEMENT_3D('',#451,#452,#453);
#455=CYLINDRICAL_SURFACE('',#454,47.500000000000000);
#456=ORIENTED_EDGE('',*,*,#80,.T.);
#457=EDGE_LOOP('',(#456));
#458=FACE_OUTER_BOUND('',#457,.T.);
#459=ORIENTED_EDGE('',*,*,#146,.T.);
#460=EDGE_LOOP('',(#459));
#461=FACE_BOUND('',#460,.T.);
#462=ADVANCED_FACE('',(#458,#461),#455,.T.);
#463=CARTESIAN_POINT('',(31.000000000000014,0.0,0.0));
#464=DIRECTION('',(-1.0,0.0,0.0));
#465=DIRECTION('',(0.0,-1.0,0.0));
#466=AXIS2_PLACEMENT_3D('',#463,#464,#465);
#467=CYLINDRICAL_SURFACE('',#466,43.500000000000007);
#468=ORIENTED_EDGE('',*,*,#257,.T.);
#469=ORIENTED_EDGE('',*,*,#128,.T.);
#470=ORIENTED_EDGE('',*,*,#309,.T.);
#471=ORIENTED_EDGE('',*,*,#325,.T.);
#472=ORIENTED_EDGE('',*,*,#295,.T.);
#473=ORIENTED_EDGE('',*,*,#110,.T.);
#474=ORIENTED_EDGE('',*,*,#248,.T.);
#475=ORIENTED_EDGE('',*,*,#278,.T.);
#476=EDGE_LOOP('',(#468,#469,#470,#471,#472,#473,#474,#475));
#477=FACE_OUTER_BOUND('',#476,.T.);
#478=CARTESIAN_POINT('',(22.000000000000007,-43.500000000000007,0.0));
#479=VERTEX_POINT('',#478);
#480=CARTESIAN_POINT('',(22.000000000000007,0.0,0.0));
#481=DIRECTION('',(-1.0,0.0,0.0));
#482=DIRECTION('',(0.0,-1.0,0.0));
#483=AXIS2_PLACEMENT_3D('',#480,#481,#482);
#484=CIRCLE('',#483,43.500000000000007);
#485=EDGE_CURVE('',#479,#479,#484,.T.);
#486=ORIENTED_EDGE('',*,*,#485,.F.);
#487=EDGE_LOOP('',(#486));
#488=FACE_BOUND('',#487,.T.);
#489=ADVANCED_FACE('',(#477,#488),#467,.T.);
#490=CARTESIAN_POINT('',(22.000000000000007,-39.675000000000004,0.0));
#491=DIRECTION('',(-1.0,0.0,0.0));
#492=DIRECTION('',(0.0,0.0,1.0));
#493=AXIS2_PLACEMENT_3D('',#490,#491,#492);
#494=PLANE('',#493);
#495=ORIENTED_EDGE('',*,*,#485,.T.);
#496=EDGE_LOOP('',(#495));
#497=FACE_OUTER_BOUND('',#496,.T.);
#498=CARTESIAN_POINT('',(22.000000000000007,-35.850000000000001,0.0));
#499=VERTEX_POINT('',#498);
#500=CARTESIAN_POINT('',(22.000000000000007,0.0,0.0));
#501=DIRECTION('',(-1.0,0.0,0.0));
#502=DIRECTION('',(0.0,-1.0,0.0));
#503=AXIS2_PLACEMENT_3D('',#500,#501,#502);
#504=CIRCLE('',#503,35.850000000000001);
#505=EDGE_CURVE('',#499,#499,#504,.T.);
#506=ORIENTED_EDGE('',*,*,#505,.F.);
#507=EDGE_LOOP('',(#506));
#508=FACE_BOUND('',#507,.T.);
#509=ADVANCED_FACE('',(#497,#508),#494,.T.);
#510=CARTESIAN_POINT('',(20.500000000000007,0.0,0.0));
#511=DIRECTION('',(-1.0,0.0,0.0));
#512=DIRECTION('',(0.0,-1.0,0.0));
#513=AXIS2_PLACEMENT_3D('',#510,#511,#512);
#514=CYLINDRICAL_SURFACE('',#513,35.850000000000001);
#515=ORIENTED_EDGE('',*,*,#204,.F.);
#516=EDGE_LOOP('',(#515));
#517=FACE_OUTER_BOUND('',#516,.T.);
#518=ORIENTED_EDGE('',*,*,#505,.T.);
#519=EDGE_LOOP('',(#518));
#520=FACE_BOUND('',#519,.T.);
#521=ADVANCED_FACE('',(#517,#520),#514,.T.);
#522=CARTESIAN_POINT('',(9.500000000000007,0.0,0.0));
#523=DIRECTION('',(-1.0,0.0,0.0));
#524=DIRECTION('',(0.0,-1.0,0.0));
#525=AXIS2_PLACEMENT_3D('',#522,#523,#524);
#526=CYLINDRICAL_SURFACE('',#525,37.591999999999999);
#527=ORIENTED_EDGE('',*,*,#193,.T.);
#528=EDGE_LOOP('',(#527));
#529=FACE_OUTER_BOUND('',#528,.T.);
#530=ORIENTED_EDGE('',*,*,#232,.T.);
#531=EDGE_LOOP('',(#530));
#532=FACE_BOUND('',#531,.T.);
#533=ADVANCED_FACE('',(#529,#532),#526,.T.);
#534=CARTESIAN_POINT('',(6.916781E-015,-35.296000000000006,0.0));
#535=DIRECTION('',(-1.0,0.0,0.0));
#536=DIRECTION('',(0.0,0.0,1.0));
#537=AXIS2_PLACEMENT_3D('',#534,#535,#536);
#538=PLANE('',#537);
#539=ORIENTED_EDGE('',*,*,#221,.T.);
#540=EDGE_LOOP('',(#539));
#541=FACE_OUTER_BOUND('',#540,.T.);
#542=CARTESIAN_POINT('',(6.062002E-015,-33.0,0.0));
#543=VERTEX_POINT('',#542);
#544=CARTESIAN_POINT('',(6.062859E-015,0.0,0.0));
#545=DIRECTION('',(-1.0,0.0,0.0));
#546=DIRECTION('',(0.0,-1.0,0.0));
#547=AXIS2_PLACEMENT_3D('',#544,#545,#546);
#548=CIRCLE('',#547,33.0);
#549=EDGE_CURVE('',#543,#543,#548,.T.);
#550=ORIENTED_EDGE('',*,*,#549,.F.);
#551=EDGE_LOOP('',(#550));
#552=FACE_BOUND('',#551,.T.);
#553=ADVANCED_FACE('',(#541,#552),#538,.T.);
#554=CARTESIAN_POINT('',(24.000000000000014,0.0,0.0));
#555=DIRECTION('',(-1.0,0.0,0.0));
#556=DIRECTION('',(0.0,-1.0,0.0));
#557=AXIS2_PLACEMENT_3D('',#554,#555,#556);
#558=CYLINDRICAL_SURFACE('',#557,33.0);
#559=ORIENTED_EDGE('',*,*,#354,.F.);
#560=EDGE_LOOP('',(#559));
#561=FACE_OUTER_BOUND('',#560,.T.);
#562=ORIENTED_EDGE('',*,*,#549,.T.);
#563=EDGE_LOOP('',(#562));
#564=FACE_BOUND('',#563,.T.);
#565=ADVANCED_FACE('',(#561,#564),#558,.F.);
#566=CLOSED_SHELL('',(#95,#150,#165,#180,#208,#236,#267,#283,#314,#330,#358,#378,#398,#418,#438,#450,#462,#489,#509,#521,#533,#553,#565));
#567=MANIFOLD_SOLID_BREP('',#566);
#568=COLOUR_RGB('Standard',0.752941012382507,0.752941012382507,0.752941012382507);
#569=FILL_AREA_STYLE_COLOUR('Standard',#568);
#570=FILL_AREA_STYLE('Standard',(#569));
#571=SURFACE_STYLE_FILL_AREA(#570);
#572=SURFACE_SIDE_STYLE('Standard',(#571));
#573=SURFACE_STYLE_USAGE(.BOTH.,#572);
#574=PRESENTATION_STYLE_ASSIGNMENT((#573));
#575=STYLED_ITEM('',(#574),#567);
#576=MECHANICAL_DESIGN_GEOMETRIC_PRESENTATION_REPRESENTATION('',(#575),#36);
#577=ADVANCED_BREP_SHAPE_REPRESENTATION('ABSR',(#567),#36);
#578=SHAPE_REPRESENTATION_RELATIONSHIP('SRR','None',#577,#41);
ENDSEC;
END-ISO-10303-21;
