ISO-10303-21;
HEADER;
/* Generated by software containing ST-Developer
 * from STEP Tools, Inc. (www.steptools.com) 
 */

FILE_DESCRIPTION(
/* description */ (''),
/* implementation_level */ '2;1');

FILE_NAME(
/* name */ 'Z:\\Geberit\\Export\\NewStep\\90989.stp',
/* time_stamp */ '2014-04-03T10:25:28+02:00',
/* author */ ('bruh'),
/* organization */ (''),
/* preprocessor_version */ 'ST-DEVELOPER v15.2',
/* originating_system */ 'Autodesk Inventor 2014',
/* authorisation */ '');

FILE_SCHEMA (('AUTOMOTIVE_DESIGN { 1 0 10303 214 3 1 1 }'));
ENDSEC;

DATA;
#10=ITEM_DEFINED_TRANSFORMATION($,$,#182,#210);
#11=ITEM_DEFINED_TRANSFORMATION($,$,#200,#211);
#12=(
REPRESENTATION_RELATIONSHIP($,$,#411,#413)
REPRESENTATION_RELATIONSHIP_WITH_TRANSFORMATION(#10)
SHAPE_REPRESENTATION_RELATIONSHIP()
);
#13=(
REPRESENTATION_RELATIONSHIP($,$,#412,#413)
REPRESENTATION_RELATIONSHIP_WITH_TRANSFORMATION(#11)
SHAPE_REPRESENTATION_RELATIONSHIP()
);
#14=CONTEXT_DEPENDENT_SHAPE_REPRESENTATION(#12,#409);
#15=CONTEXT_DEPENDENT_SHAPE_REPRESENTATION(#13,#410);
#16=NEXT_ASSEMBLY_USAGE_OCCURRENCE('102557:1',$,$,#417,#415,$);
#17=NEXT_ASSEMBLY_USAGE_OCCURRENCE('100117:1',$,$,#417,#416,$);
#18=SHAPE_REPRESENTATION_RELATIONSHIP('SRR','None',#411,#20);
#19=SHAPE_REPRESENTATION_RELATIONSHIP('SRR','None',#412,#21);
#20=ADVANCED_BREP_SHAPE_REPRESENTATION($,(#180),#394);
#21=ADVANCED_BREP_SHAPE_REPRESENTATION($,(#181),#395);
#22=STYLED_ITEM($,(#427),#180);
#23=STYLED_ITEM($,(#428),#181);
#24=CONICAL_SURFACE($,#192,62.,45.0000000000001);
#25=CONICAL_SURFACE($,#193,62.,45.);
#26=PLANE($,#187);
#27=PLANE($,#197);
#28=PLANE($,#204);
#29=PLANE($,#208);
#30=CIRCLE($,#185,66.5);
#31=CIRCLE($,#186,66.5);
#32=CIRCLE($,#188,57.5);
#33=CIRCLE($,#189,54.35);
#34=CIRCLE($,#191,57.5);
#35=CIRCLE($,#194,57.5);
#36=CIRCLE($,#196,57.5);
#37=CIRCLE($,#198,54.35);
#38=CIRCLE($,#202,52.);
#39=CIRCLE($,#203,52.);
#40=CIRCLE($,#205,54.);
#41=CIRCLE($,#207,54.);
#42=FACE_BOUND($,#70,.T.);
#43=FACE_BOUND($,#72,.T.);
#44=FACE_BOUND($,#74,.T.);
#45=FACE_BOUND($,#76,.T.);
#46=FACE_BOUND($,#78,.T.);
#47=FACE_BOUND($,#80,.T.);
#48=FACE_BOUND($,#82,.T.);
#49=FACE_BOUND($,#83,.T.);
#50=FACE_BOUND($,#84,.T.);
#51=FACE_BOUND($,#85,.T.);
#52=FACE_BOUND($,#86,.T.);
#53=FACE_BOUND($,#87,.T.);
#54=FACE_BOUND($,#89,.T.);
#55=FACE_BOUND($,#90,.T.);
#56=FACE_BOUND($,#91,.T.);
#57=FACE_BOUND($,#93,.T.);
#58=FACE_BOUND($,#94,.T.);
#59=FACE_BOUND($,#95,.T.);
#60=FACE_OUTER_BOUND($,#69,.T.);
#61=FACE_OUTER_BOUND($,#71,.T.);
#62=FACE_OUTER_BOUND($,#73,.T.);
#63=FACE_OUTER_BOUND($,#75,.T.);
#64=FACE_OUTER_BOUND($,#77,.T.);
#65=FACE_OUTER_BOUND($,#79,.T.);
#66=FACE_OUTER_BOUND($,#81,.T.);
#67=FACE_OUTER_BOUND($,#88,.T.);
#68=FACE_OUTER_BOUND($,#92,.T.);
#69=EDGE_LOOP($,(#128,#129));
#70=EDGE_LOOP($,(#130));
#71=EDGE_LOOP($,(#131,#132));
#72=EDGE_LOOP($,(#133));
#73=EDGE_LOOP($,(#134));
#74=EDGE_LOOP($,(#135));
#75=EDGE_LOOP($,(#136));
#76=EDGE_LOOP($,(#137));
#77=EDGE_LOOP($,(#138,#139));
#78=EDGE_LOOP($,(#140));
#79=EDGE_LOOP($,(#141));
#80=EDGE_LOOP($,(#142));
#81=EDGE_LOOP($,(#143));
#82=EDGE_LOOP($,(#144));
#83=EDGE_LOOP($,(#145));
#84=EDGE_LOOP($,(#146));
#85=EDGE_LOOP($,(#147));
#86=EDGE_LOOP($,(#148));
#87=EDGE_LOOP($,(#149));
#88=EDGE_LOOP($,(#150));
#89=EDGE_LOOP($,(#151));
#90=EDGE_LOOP($,(#152));
#91=EDGE_LOOP($,(#153));
#92=EDGE_LOOP($,(#154));
#93=EDGE_LOOP($,(#155));
#94=EDGE_LOOP($,(#156));
#95=EDGE_LOOP($,(#157));
#96=B_SPLINE_CURVE_WITH_KNOTS($,3,(#276,#277,#278,#279,#280,#281,#282,#283,
#284,#285,#286,#287,#288,#289),.UNSPECIFIED.,.F.,.F.,(4,2,2,2,2,2,4),(0.888952191378545,
0.96678357176534,1.04029990282574,1.11381623388613,1.18589317717499,1.25797012046384,
1.34470322019504),.UNSPECIFIED.);
#97=B_SPLINE_CURVE_WITH_KNOTS($,3,(#290,#291,#292,#293,#294,#295,#296,#297,
#298,#299,#300,#301,#302,#303,#304,#305,#306,#307,#308,#309,#310,#311,#312,
#313,#314,#315,#316),.UNSPECIFIED.,.F.,.F.,(4,2,2,2,2,2,2,2,2,2,3,2,4),
(-0.702858758742683,-0.678157679163123,-0.602814481142294,-0.527471283121465,
-0.452128085100637,-0.376745816269363,-0.301363547438089,-0.226021007288257,
-0.150678467138425,-0.0753392335692125,0.,0.0753392335692125,0.100030141098645),
 .UNSPECIFIED.);
#98=B_SPLINE_CURVE_WITH_KNOTS($,3,(#318,#319,#320,#321,#322,#323,#324,#325,
#326,#327,#328,#329,#330,#331,#332,#333,#334,#335,#336,#337,#338,#339,#340,
#341,#342,#343,#344,#345,#346,#347,#348,#349,#350,#351),.UNSPECIFIED.,.T.,
 .F.,(4,2,2,2,2,2,2,2,2,2,2,2,2,2,2,2,4),(0.,0.0753401751922209,0.150680350384442,
0.226025476803759,0.301370603223077,0.376775241314998,0.452179879406918,
0.527526006995958,0.602872134584998,0.678218262174037,0.753564389763077,
0.828969027854998,0.904373665946918,0.979718792366236,1.05506391878555,
1.13040409397777,1.20574426917),.UNSPECIFIED.);
#99=VERTEX_POINT($,#274);
#100=VERTEX_POINT($,#275);
#101=VERTEX_POINT($,#317);
#102=VERTEX_POINT($,#354);
#103=VERTEX_POINT($,#357);
#104=VERTEX_POINT($,#359);
#105=VERTEX_POINT($,#362);
#106=VERTEX_POINT($,#366);
#107=VERTEX_POINT($,#369);
#108=VERTEX_POINT($,#372);
#109=VERTEX_POINT($,#377);
#110=VERTEX_POINT($,#379);
#111=VERTEX_POINT($,#382);
#112=VERTEX_POINT($,#385);
#113=EDGE_CURVE($,#99,#100,#96,.T.);
#114=EDGE_CURVE($,#100,#99,#97,.T.);
#115=EDGE_CURVE($,#101,#101,#98,.T.);
#116=EDGE_CURVE($,#99,#100,#30,.T.);
#117=EDGE_CURVE($,#102,#102,#31,.T.);
#118=EDGE_CURVE($,#103,#103,#32,.T.);
#119=EDGE_CURVE($,#104,#104,#33,.T.);
#120=EDGE_CURVE($,#105,#105,#34,.T.);
#121=EDGE_CURVE($,#106,#106,#35,.T.);
#122=EDGE_CURVE($,#107,#107,#36,.T.);
#123=EDGE_CURVE($,#108,#108,#37,.T.);
#124=EDGE_CURVE($,#109,#109,#38,.T.);
#125=EDGE_CURVE($,#110,#110,#39,.T.);
#126=EDGE_CURVE($,#111,#111,#40,.T.);
#127=EDGE_CURVE($,#112,#112,#41,.T.);
#128=ORIENTED_EDGE($,*,*,#113,.F.);
#129=ORIENTED_EDGE($,*,*,#114,.F.);
#130=ORIENTED_EDGE($,*,*,#115,.F.);
#131=ORIENTED_EDGE($,*,*,#114,.T.);
#132=ORIENTED_EDGE($,*,*,#116,.T.);
#133=ORIENTED_EDGE($,*,*,#117,.F.);
#134=ORIENTED_EDGE($,*,*,#118,.F.);
#135=ORIENTED_EDGE($,*,*,#119,.T.);
#136=ORIENTED_EDGE($,*,*,#120,.F.);
#137=ORIENTED_EDGE($,*,*,#118,.T.);
#138=ORIENTED_EDGE($,*,*,#113,.T.);
#139=ORIENTED_EDGE($,*,*,#116,.F.);
#140=ORIENTED_EDGE($,*,*,#120,.T.);
#141=ORIENTED_EDGE($,*,*,#121,.F.);
#142=ORIENTED_EDGE($,*,*,#117,.T.);
#143=ORIENTED_EDGE($,*,*,#122,.F.);
#144=ORIENTED_EDGE($,*,*,#121,.T.);
#145=ORIENTED_EDGE($,*,*,#123,.F.);
#146=ORIENTED_EDGE($,*,*,#122,.T.);
#147=ORIENTED_EDGE($,*,*,#115,.T.);
#148=ORIENTED_EDGE($,*,*,#119,.F.);
#149=ORIENTED_EDGE($,*,*,#123,.T.);
#150=ORIENTED_EDGE($,*,*,#124,.F.);
#151=ORIENTED_EDGE($,*,*,#125,.F.);
#152=ORIENTED_EDGE($,*,*,#124,.T.);
#153=ORIENTED_EDGE($,*,*,#126,.F.);
#154=ORIENTED_EDGE($,*,*,#126,.T.);
#155=ORIENTED_EDGE($,*,*,#127,.T.);
#156=ORIENTED_EDGE($,*,*,#125,.T.);
#157=ORIENTED_EDGE($,*,*,#127,.F.);
#158=CYLINDRICAL_SURFACE($,#183,2.);
#159=CYLINDRICAL_SURFACE($,#184,66.5);
#160=CYLINDRICAL_SURFACE($,#190,57.5);
#161=CYLINDRICAL_SURFACE($,#195,57.5);
#162=CYLINDRICAL_SURFACE($,#199,54.35);
#163=CYLINDRICAL_SURFACE($,#201,52.);
#164=CYLINDRICAL_SURFACE($,#206,54.);
#165=ADVANCED_FACE($,(#60,#42),#158,.F.);
#166=ADVANCED_FACE($,(#61,#43),#159,.T.);
#167=ADVANCED_FACE($,(#62,#44),#26,.T.);
#168=ADVANCED_FACE($,(#63,#45),#160,.T.);
#169=ADVANCED_FACE($,(#64,#46),#24,.T.);
#170=ADVANCED_FACE($,(#65,#47),#25,.T.);
#171=ADVANCED_FACE($,(#66,#48),#161,.T.);
#172=ADVANCED_FACE($,(#49,#50),#27,.T.);
#173=ADVANCED_FACE($,(#51,#52,#53),#162,.F.);
#174=ADVANCED_FACE($,(#67,#54),#163,.F.);
#175=ADVANCED_FACE($,(#55,#56),#28,.T.);
#176=ADVANCED_FACE($,(#68,#57),#164,.T.);
#177=ADVANCED_FACE($,(#58,#59),#29,.F.);
#178=CLOSED_SHELL($,(#165,#166,#167,#168,#169,#170,#171,#172,#173));
#179=CLOSED_SHELL($,(#174,#175,#176,#177));
#180=MANIFOLD_SOLID_BREP('Volumenk\X\F6rper1',#178);
#181=MANIFOLD_SOLID_BREP('Volumenk\X\F6rper1',#179);
#182=AXIS2_PLACEMENT_3D('placement',#272,#212,#213);
#183=AXIS2_PLACEMENT_3D($,#273,#214,#215);
#184=AXIS2_PLACEMENT_3D($,#352,#216,#217);
#185=AXIS2_PLACEMENT_3D($,#353,#218,#219);
#186=AXIS2_PLACEMENT_3D($,#355,#220,#221);
#187=AXIS2_PLACEMENT_3D($,#356,#222,#223);
#188=AXIS2_PLACEMENT_3D($,#358,#224,#225);
#189=AXIS2_PLACEMENT_3D($,#360,#226,#227);
#190=AXIS2_PLACEMENT_3D($,#361,#228,#229);
#191=AXIS2_PLACEMENT_3D($,#363,#230,#231);
#192=AXIS2_PLACEMENT_3D($,#364,#232,#233);
#193=AXIS2_PLACEMENT_3D($,#365,#234,#235);
#194=AXIS2_PLACEMENT_3D($,#367,#236,#237);
#195=AXIS2_PLACEMENT_3D($,#368,#238,#239);
#196=AXIS2_PLACEMENT_3D($,#370,#240,#241);
#197=AXIS2_PLACEMENT_3D($,#371,#242,#243);
#198=AXIS2_PLACEMENT_3D($,#373,#244,#245);
#199=AXIS2_PLACEMENT_3D($,#374,#246,#247);
#200=AXIS2_PLACEMENT_3D('placement',#375,#248,#249);
#201=AXIS2_PLACEMENT_3D($,#376,#250,#251);
#202=AXIS2_PLACEMENT_3D($,#378,#252,#253);
#203=AXIS2_PLACEMENT_3D($,#380,#254,#255);
#204=AXIS2_PLACEMENT_3D($,#381,#256,#257);
#205=AXIS2_PLACEMENT_3D($,#383,#258,#259);
#206=AXIS2_PLACEMENT_3D($,#384,#260,#261);
#207=AXIS2_PLACEMENT_3D($,#386,#262,#263);
#208=AXIS2_PLACEMENT_3D($,#387,#264,#265);
#209=AXIS2_PLACEMENT_3D('placement',#388,#266,#267);
#210=AXIS2_PLACEMENT_3D($,#389,#268,#269);
#211=AXIS2_PLACEMENT_3D($,#390,#270,#271);
#212=DIRECTION('axis',(0.,0.,1.));
#213=DIRECTION('refdir',(1.,0.,0.));
#214=DIRECTION('center_axis',(0.,-1.,0.));
#215=DIRECTION('ref_axis',(1.,0.,0.));
#216=DIRECTION('center_axis',(1.,0.,0.));
#217=DIRECTION('ref_axis',(0.,1.,0.));
#218=DIRECTION('center_axis',(1.,0.,0.));
#219=DIRECTION('ref_axis',(0.,1.,0.));
#220=DIRECTION('center_axis',(1.,0.,0.));
#221=DIRECTION('ref_axis',(0.,1.,0.));
#222=DIRECTION('center_axis',(-1.,0.,0.));
#223=DIRECTION('ref_axis',(0.,0.,1.));
#224=DIRECTION('center_axis',(1.,0.,0.));
#225=DIRECTION('ref_axis',(0.,1.,0.));
#226=DIRECTION('center_axis',(1.,0.,0.));
#227=DIRECTION('ref_axis',(0.,1.,0.));
#228=DIRECTION('center_axis',(1.,0.,0.));
#229=DIRECTION('ref_axis',(0.,1.,0.));
#230=DIRECTION('center_axis',(1.,0.,0.));
#231=DIRECTION('ref_axis',(0.,1.,0.));
#232=DIRECTION('center_axis',(1.,0.,0.));
#233=DIRECTION('ref_axis',(0.,1.,0.));
#234=DIRECTION('center_axis',(-1.,0.,0.));
#235=DIRECTION('ref_axis',(0.,1.,0.));
#236=DIRECTION('center_axis',(1.,0.,0.));
#237=DIRECTION('ref_axis',(0.,1.,0.));
#238=DIRECTION('center_axis',(1.,0.,0.));
#239=DIRECTION('ref_axis',(0.,1.,0.));
#240=DIRECTION('center_axis',(1.,0.,0.));
#241=DIRECTION('ref_axis',(0.,1.,0.));
#242=DIRECTION('center_axis',(1.,0.,0.));
#243=DIRECTION('ref_axis',(0.,0.,-1.));
#244=DIRECTION('center_axis',(1.,0.,0.));
#245=DIRECTION('ref_axis',(0.,1.,0.));
#246=DIRECTION('center_axis',(1.,0.,0.));
#247=DIRECTION('ref_axis',(0.,1.,0.));
#248=DIRECTION('axis',(0.,0.,1.));
#249=DIRECTION('refdir',(1.,0.,0.));
#250=DIRECTION('center_axis',(0.,0.,1.));
#251=DIRECTION('ref_axis',(-1.,0.,0.));
#252=DIRECTION('center_axis',(0.,0.,1.));
#253=DIRECTION('ref_axis',(-1.,0.,0.));
#254=DIRECTION('center_axis',(0.,0.,-1.));
#255=DIRECTION('ref_axis',(-1.,0.,0.));
#256=DIRECTION('center_axis',(0.,0.,-1.));
#257=DIRECTION('ref_axis',(-1.,0.,0.));
#258=DIRECTION('center_axis',(0.,0.,1.));
#259=DIRECTION('ref_axis',(-1.,0.,0.));
#260=DIRECTION('center_axis',(0.,0.,1.));
#261=DIRECTION('ref_axis',(-1.,0.,0.));
#262=DIRECTION('center_axis',(0.,0.,-1.));
#263=DIRECTION('ref_axis',(-1.,0.,0.));
#264=DIRECTION('center_axis',(0.,0.,-1.));
#265=DIRECTION('ref_axis',(-1.,0.,0.));
#266=DIRECTION('axis',(0.,0.,1.));
#267=DIRECTION('refdir',(1.,0.,0.));
#268=DIRECTION($,(0.,0.,1.));
#269=DIRECTION($,(1.,0.,0.));
#270=DIRECTION($,(-1.,0.,0.));
#271=DIRECTION($,(0.,0.,1.));
#272=CARTESIAN_POINT('',(0.,0.,0.));
#273=CARTESIAN_POINT('Origin',(-40.,0.,1.5));
#274=CARTESIAN_POINT('',(-41.,-66.4995951297653,-0.232050807568931));
#275=CARTESIAN_POINT('',(-41.,-66.4214110628289,3.23205080756892));
#276=CARTESIAN_POINT('Ctrl Pts',(-41.,-66.4995951297653,-0.232050807568873));
#277=CARTESIAN_POINT('Ctrl Pts',(-41.1808113372521,-66.3191469664652,-0.127659333333828));
#278=CARTESIAN_POINT('Ctrl Pts',(-41.3490484603417,-66.1511480126524,0.00780999130469015));
#279=CARTESIAN_POINT('Ctrl Pts',(-41.6283255082708,-65.8710689224555,0.320975421431899));
#280=CARTESIAN_POINT('Ctrl Pts',(-41.7576694673675,-65.7406857072645,0.515915175380981));
#281=CARTESIAN_POINT('Ctrl Pts',(-41.9408441290939,-65.552498526167,0.960602899294501));
#282=CARTESIAN_POINT('Ctrl Pts',(-41.9940674147634,-65.4951992544796,1.21081418493931));
#283=CARTESIAN_POINT('Ctrl Pts',(-42.0048388066864,-65.4736511494568,1.69552682147395));
#284=CARTESIAN_POINT('Ctrl Pts',(-41.9642007506095,-65.5072456971374,1.94734912009231));
#285=CARTESIAN_POINT('Ctrl Pts',(-41.801477862026,-65.654996387952,2.40160031792957));
#286=CARTESIAN_POINT('Ctrl Pts',(-41.6800629719186,-65.768569407976,2.60445833776645));
#287=CARTESIAN_POINT('Ctrl Pts',(-41.3931699807754,-66.0409593728507,2.95620446534832));
#288=CARTESIAN_POINT('Ctrl Pts',(-41.2038531727356,-66.223043690364,3.11435612341483));
#289=CARTESIAN_POINT('Ctrl Pts',(-41.,-66.4214110628289,3.23205080756886));
#290=CARTESIAN_POINT('Ctrl Pts',(-41.,-66.4214110628289,3.23205080756887));
#291=CARTESIAN_POINT('Ctrl Pts',(-40.9246969825631,-66.4192955199449,3.27552702495688));
#292=CARTESIAN_POINT('Ctrl Pts',(-40.8461083791192,-66.417365436688,3.3143159695624));
#293=CARTESIAN_POINT('Ctrl Pts',(-40.5189994710593,-66.4105359711885,3.44980431867066));
#294=CARTESIAN_POINT('Ctrl Pts',(-40.2511439934028,-66.407830863536,3.5));
#295=CARTESIAN_POINT('Ctrl Pts',(-39.7488560065972,-66.407830863536,3.5));
#296=CARTESIAN_POINT('Ctrl Pts',(-39.4810005289407,-66.4105359711885,3.44980431867067));
#297=CARTESIAN_POINT('Ctrl Pts',(-38.988310055773,-66.420822491994,3.24573216659509));
#298=CARTESIAN_POINT('Ctrl Pts',(-38.7634723717605,-66.4283220718801,3.09185806999324));
#299=CARTESIAN_POINT('Ctrl Pts',(-38.4083383733008,-66.4438972389601,2.73680690755257));
#300=CARTESIAN_POINT('Ctrl Pts',(-38.2543882891617,-66.4529988983488,2.51191561894907));
#301=CARTESIAN_POINT('Ctrl Pts',(-38.0502182482051,-66.469797208385,2.01911904960941));
#302=CARTESIAN_POINT('Ctrl Pts',(-38.,-66.4774127146169,1.75121029829982));
#303=CARTESIAN_POINT('Ctrl Pts',(-38.,-66.4887454070215,1.24892209694472));
#304=CARTESIAN_POINT('Ctrl Pts',(-38.0501709296954,-66.4932192348852,0.981074452955793));
#305=CARTESIAN_POINT('Ctrl Pts',(-38.2542614666305,-66.4986636212421,0.488311262949542));
#306=CARTESIAN_POINT('Ctrl Pts',(-38.4081818497993,-66.4997154823275,0.263396939944702));
#307=CARTESIAN_POINT('Ctrl Pts',(-38.7633361345949,-66.5001737804444,-0.0917691727874472));
#308=CARTESIAN_POINT('Ctrl Pts',(-38.9882342549174,-66.4996244357633,-0.245694861176421));
#309=CARTESIAN_POINT('Ctrl Pts',(-39.4810007022183,-66.4985570276431,-0.449810298276696));
#310=CARTESIAN_POINT('Ctrl Pts',(-39.748869221436,-66.4981202741852,-0.500000000000001));
#311=CARTESIAN_POINT('Ctrl Pts',(-40.,-66.4981202741852,-0.500000000000001));
#312=CARTESIAN_POINT('Ctrl Pts',(-40.251130778564,-66.4981202741852,-0.500000000000001));
#313=CARTESIAN_POINT('Ctrl Pts',(-40.5189992977817,-66.4985570276431,-0.449810298276696));
#314=CARTESIAN_POINT('Ctrl Pts',(-40.8461296315865,-66.4992656423968,-0.314305230025673));
#315=CARTESIAN_POINT('Ctrl Pts',(-40.9247055334733,-66.4994434364245,-0.275522088086548));
#316=CARTESIAN_POINT('Ctrl Pts',(-41.,-66.4995951297653,-0.232050807568882));
#317=CARTESIAN_POINT('',(-40.,-54.3477000433321,-0.500000000000001));
#318=CARTESIAN_POINT('Ctrl Pts',(-40.,-54.3477000433321,-0.500000000000001));
#319=CARTESIAN_POINT('Ctrl Pts',(-39.7488660826926,-54.3477000433321,-0.500000000000001));
#320=CARTESIAN_POINT('Ctrl Pts',(-39.4809948586403,-54.3482344551913,-0.449809093620516));
#321=CARTESIAN_POINT('Ctrl Pts',(-38.988224531355,-54.3495405061335,-0.24568961751897));
#322=CARTESIAN_POINT('Ctrl Pts',(-38.7633251403151,-54.3502126548829,-0.0917611181373151));
#323=CARTESIAN_POINT('Ctrl Pts',(-38.4081655540965,-54.3496518093428,0.263416176573029));
#324=CARTESIAN_POINT('Ctrl Pts',(-38.2542449973732,-54.3483646465621,0.488339827563589));
#325=CARTESIAN_POINT('Ctrl Pts',(-38.0501628015085,-54.3417026598848,0.981105278604186));
#326=CARTESIAN_POINT('Ctrl Pts',(-38.,-54.3362283592016,1.24894524734375));
#327=CARTESIAN_POINT('Ctrl Pts',(-38.,-54.3223599356035,1.75125304933389));
#328=CARTESIAN_POINT('Ctrl Pts',(-38.0502336784658,-54.3130390992793,2.01918455158442));
#329=CARTESIAN_POINT('Ctrl Pts',(-38.2544349574198,-54.2924781023042,2.51199999294045));
#330=CARTESIAN_POINT('Ctrl Pts',(-38.4083999960358,-54.2813371285319,2.73688912679146));
#331=CARTESIAN_POINT('Ctrl Pts',(-38.7635291722694,-54.2622729290497,3.09189425284387));
#332=CARTESIAN_POINT('Ctrl Pts',(-38.9883380317265,-54.2530928661534,3.24574547244476));
#333=CARTESIAN_POINT('Ctrl Pts',(-39.4809945488412,-54.2404998901644,3.44980012341632));
#334=CARTESIAN_POINT('Ctrl Pts',(-39.7488462413699,-54.2371874270781,3.5));
#335=CARTESIAN_POINT('Ctrl Pts',(-40.2511537586301,-54.2371874270781,3.5));
#336=CARTESIAN_POINT('Ctrl Pts',(-40.5190054511588,-54.2404998901644,3.44980012341632));
#337=CARTESIAN_POINT('Ctrl Pts',(-41.0116619682735,-54.2530928661534,3.24574547244477));
#338=CARTESIAN_POINT('Ctrl Pts',(-41.2364708277306,-54.2622729290497,3.09189425284387));
#339=CARTESIAN_POINT('Ctrl Pts',(-41.5916000039642,-54.2813371285319,2.73688912679146));
#340=CARTESIAN_POINT('Ctrl Pts',(-41.7455650425802,-54.2924781023042,2.51199999294045));
#341=CARTESIAN_POINT('Ctrl Pts',(-41.9497663215342,-54.3130390992793,2.01918455158441));
#342=CARTESIAN_POINT('Ctrl Pts',(-42.,-54.3223599356035,1.75125304933389));
#343=CARTESIAN_POINT('Ctrl Pts',(-42.,-54.3362283592016,1.24894524734375));
#344=CARTESIAN_POINT('Ctrl Pts',(-41.9498371984915,-54.3417026598848,0.981105278604179));
#345=CARTESIAN_POINT('Ctrl Pts',(-41.7457550026268,-54.3483646465621,0.488339827563586));
#346=CARTESIAN_POINT('Ctrl Pts',(-41.5918344459035,-54.3496518093428,0.263416176573029));
#347=CARTESIAN_POINT('Ctrl Pts',(-41.2366748596849,-54.3502126548829,-0.0917611181373151));
#348=CARTESIAN_POINT('Ctrl Pts',(-41.011775468645,-54.3495405061335,-0.245689617518971));
#349=CARTESIAN_POINT('Ctrl Pts',(-40.5190051413597,-54.3482344551913,-0.449809093620517));
#350=CARTESIAN_POINT('Ctrl Pts',(-40.2511339173074,-54.3477000433321,-0.500000000000001));
#351=CARTESIAN_POINT('Ctrl Pts',(-40.,-54.3477000433321,-0.500000000000001));
#352=CARTESIAN_POINT('Origin',(-1.77635683940025E-014,0.,0.));
#353=CARTESIAN_POINT('Origin',(-41.,0.,0.));
#354=CARTESIAN_POINT('',(41.,66.5,0.));
#355=CARTESIAN_POINT('Origin',(41.,0.,0.));
#356=CARTESIAN_POINT('Origin',(-60.,55.925,0.));
#357=CARTESIAN_POINT('',(-60.,57.5,0.));
#358=CARTESIAN_POINT('Origin',(-60.,0.,0.));
#359=CARTESIAN_POINT('',(-60.,54.35,0.));
#360=CARTESIAN_POINT('Origin',(-60.,0.,0.));
#361=CARTESIAN_POINT('Origin',(-55.,0.,0.));
#362=CARTESIAN_POINT('',(-50.,57.5,0.));
#363=CARTESIAN_POINT('Origin',(-50.,0.,0.));
#364=CARTESIAN_POINT('Origin',(-45.5,0.,0.));
#365=CARTESIAN_POINT('Origin',(45.5,0.,0.));
#366=CARTESIAN_POINT('',(50.,57.5,0.));
#367=CARTESIAN_POINT('Origin',(50.,0.,0.));
#368=CARTESIAN_POINT('Origin',(55.,0.,0.));
#369=CARTESIAN_POINT('',(60.,57.5,0.));
#370=CARTESIAN_POINT('Origin',(60.,0.,0.));
#371=CARTESIAN_POINT('Origin',(60.,55.925,0.));
#372=CARTESIAN_POINT('',(60.,54.35,0.));
#373=CARTESIAN_POINT('Origin',(60.,0.,0.));
#374=CARTESIAN_POINT('Origin',(0.,0.,0.));
#375=CARTESIAN_POINT('',(0.,0.,0.));
#376=CARTESIAN_POINT('Origin',(0.,0.,0.));
#377=CARTESIAN_POINT('',(52.,6.36816335556624E-015,-225.));
#378=CARTESIAN_POINT('Origin',(0.,0.,-225.));
#379=CARTESIAN_POINT('',(52.,6.36816335556624E-015,225.));
#380=CARTESIAN_POINT('Origin',(0.,0.,225.));
#381=CARTESIAN_POINT('Origin',(0.,0.,-225.));
#382=CARTESIAN_POINT('',(54.,6.61309271539571E-015,-225.));
#383=CARTESIAN_POINT('Origin',(0.,0.,-225.));
#384=CARTESIAN_POINT('Origin',(0.,0.,0.));
#385=CARTESIAN_POINT('',(54.,6.61309271539571E-015,225.));
#386=CARTESIAN_POINT('Origin',(0.,0.,225.));
#387=CARTESIAN_POINT('Origin',(0.,0.,225.));
#388=CARTESIAN_POINT('',(0.,0.,0.));
#389=CARTESIAN_POINT($,(0.,0.,0.));
#390=CARTESIAN_POINT($,(0.,0.,0.));
#391=UNCERTAINTY_MEASURE_WITH_UNIT(LENGTH_MEASURE(0.01),#397,
'DISTANCE_ACCURACY_VALUE',
'Maximum model space distance between geometric entities at asserted c
onnectivities');
#392=UNCERTAINTY_MEASURE_WITH_UNIT(LENGTH_MEASURE(0.01),#397,
'DISTANCE_ACCURACY_VALUE',
'Maximum model space distance between geometric entities at asserted c
onnectivities');
#393=UNCERTAINTY_MEASURE_WITH_UNIT(LENGTH_MEASURE(0.01),#397,
'DISTANCE_ACCURACY_VALUE',
'Maximum model space distance between geometric entities at asserted c
onnectivities');
#394=(
GEOMETRIC_REPRESENTATION_CONTEXT(3)
GLOBAL_UNCERTAINTY_ASSIGNED_CONTEXT((#391))
GLOBAL_UNIT_ASSIGNED_CONTEXT((#397,#400,#398))
REPRESENTATION_CONTEXT('','3D')
);
#395=(
GEOMETRIC_REPRESENTATION_CONTEXT(3)
GLOBAL_UNCERTAINTY_ASSIGNED_CONTEXT((#392))
GLOBAL_UNIT_ASSIGNED_CONTEXT((#397,#400,#398))
REPRESENTATION_CONTEXT('','3D')
);
#396=(
GEOMETRIC_REPRESENTATION_CONTEXT(3)
GLOBAL_UNCERTAINTY_ASSIGNED_CONTEXT((#393))
GLOBAL_UNIT_ASSIGNED_CONTEXT((#397,#400,#398))
REPRESENTATION_CONTEXT('','3D')
);
#397=(
LENGTH_UNIT()
NAMED_UNIT(*)
SI_UNIT(.MILLI.,.METRE.)
);
#398=(
NAMED_UNIT(*)
SI_UNIT($,.STERADIAN.)
SOLID_ANGLE_UNIT()
);
#399=DIMENSIONAL_EXPONENTS(0.,0.,0.,0.,0.,0.,0.);
#400=(
CONVERSION_BASED_UNIT('degree',#402)
NAMED_UNIT(#399)
PLANE_ANGLE_UNIT()
);
#401=(
NAMED_UNIT(*)
PLANE_ANGLE_UNIT()
SI_UNIT($,.RADIAN.)
);
#402=PLANE_ANGLE_MEASURE_WITH_UNIT(PLANE_ANGLE_MEASURE(0.01745329252),#401);
#403=SHAPE_DEFINITION_REPRESENTATION(#406,#411);
#404=SHAPE_DEFINITION_REPRESENTATION(#407,#412);
#405=SHAPE_DEFINITION_REPRESENTATION(#408,#413);
#406=PRODUCT_DEFINITION_SHAPE('',$,#415);
#407=PRODUCT_DEFINITION_SHAPE('',$,#416);
#408=PRODUCT_DEFINITION_SHAPE('',$,#417);
#409=PRODUCT_DEFINITION_SHAPE($,$,#16);
#410=PRODUCT_DEFINITION_SHAPE($,$,#17);
#411=SHAPE_REPRESENTATION('',(#182),#394);
#412=SHAPE_REPRESENTATION('',(#200),#395);
#413=SHAPE_REPRESENTATION('',(#209,#210,#211),#396);
#414=PRODUCT_DEFINITION_CONTEXT('3D Mechanical Parts',#422,'design');
#415=PRODUCT_DEFINITION('102557','102557',#418,#414);
#416=PRODUCT_DEFINITION('100117','100117',#419,#414);
#417=PRODUCT_DEFINITION('90989','90989',#420,#414);
#418=PRODUCT_DEFINITION_FORMATION('',$,#424);
#419=PRODUCT_DEFINITION_FORMATION('',$,#425);
#420=PRODUCT_DEFINITION_FORMATION('',$,#426);
#421=APPLICATION_PROTOCOL_DEFINITION('international standard',
'automotive_design',2009,#422);
#422=APPLICATION_CONTEXT(
'Core Data for Automotive Mechanical Design Process');
#423=PRODUCT_CONTEXT('3D Mechanical Parts',#422,'mechanical');
#424=PRODUCT('102557','102557',$,(#423));
#425=PRODUCT('100117','100117',$,(#423));
#426=PRODUCT('90989','90989',$,(#423));
#427=PRESENTATION_STYLE_ASSIGNMENT((#429));
#428=PRESENTATION_STYLE_ASSIGNMENT((#430));
#429=SURFACE_STYLE_USAGE(.BOTH.,#431);
#430=SURFACE_STYLE_USAGE(.BOTH.,#432);
#431=SURFACE_SIDE_STYLE($,(#433));
#432=SURFACE_SIDE_STYLE($,(#434));
#433=SURFACE_STYLE_FILL_AREA(#435);
#434=SURFACE_STYLE_FILL_AREA(#436);
#435=FILL_AREA_STYLE($,(#437));
#436=FILL_AREA_STYLE($,(#438));
#437=FILL_AREA_STYLE_COLOUR($,#439);
#438=FILL_AREA_STYLE_COLOUR($,#440);
#439=COLOUR_RGB('',0.949019607843137,0.92156862745098,0.929411764705882);
#440=COLOUR_RGB('',1.,1.,1.);
ENDSEC;
END-ISO-10303-21;
