ISO-10303-21;
HEADER;
/* Generated by software containing ST-Developer
 * from STEP Tools, Inc. (www.steptools.com) 
 */

FILE_DESCRIPTION(
/* description */ (''),
/* implementation_level */ '2;1');

FILE_NAME(
/* name */ 
'H:\\\X2\C124ACC4D300\X0\\\BMT-DRAW\\CADFILE 2000Ver\\APPROVAL\\CADFIL
E\\SUPERLOK\\SPC\\3D\\metric\\SPC-6M.stp',
/* time_stamp */ '2019-03-14T11:39:22+09:00',
/* author */ ('user'),
/* organization */ (''),
/* preprocessor_version */ 'ST-DEVELOPER v16.13',
/* originating_system */ 'Autodesk Inventor 2018',
/* authorisation */ '');

FILE_SCHEMA (('AUTOMOTIVE_DESIGN { 1 0 10303 214 3 1 1 }'));
ENDSEC;

DATA;
#10=MECHANICAL_DESIGN_GEOMETRIC_PRESENTATION_REPRESENTATION('',(#13),#341);
#11=SHAPE_REPRESENTATION_RELATIONSHIP('SRR','None',#348,#12);
#12=ADVANCED_BREP_SHAPE_REPRESENTATION('',(#14),#340);
#13=STYLED_ITEM('',(#357),#14);
#14=MANIFOLD_SOLID_BREP('\X2\C194B9ACB4DC\X0\1',#180);
#15=PLANE('',#219);
#16=PLANE('',#225);
#17=PLANE('',#229);
#18=CYLINDRICAL_SURFACE('',#207,4.50000000000146);
#19=CYLINDRICAL_SURFACE('',#215,2.9999999999982);
#20=CYLINDRICAL_SURFACE('',#221,2.99999999999656);
#21=CYLINDRICAL_SURFACE('',#227,2.04999999999563);
#22=CONICAL_SURFACE('',#203,3.36557366962867,0.357792496658954);
#23=CONICAL_SURFACE('',#205,3.96410161513887,0.261799387799323);
#24=CONICAL_SURFACE('',#211,3.78705904774462,1.30899693899579);
#25=CONICAL_SURFACE('',#217,2.84999999999716,0.174532925199073);
#26=FACE_BOUND('',#57,.T.);
#27=FACE_BOUND('',#59,.T.);
#28=FACE_BOUND('',#61,.T.);
#29=FACE_BOUND('',#63,.T.);
#30=FACE_BOUND('',#65,.T.);
#31=FACE_BOUND('',#67,.T.);
#32=FACE_BOUND('',#69,.T.);
#33=FACE_BOUND('',#71,.T.);
#34=FACE_BOUND('',#73,.T.);
#35=FACE_BOUND('',#75,.T.);
#36=FACE_BOUND('',#77,.T.);
#37=FACE_BOUND('',#79,.T.);
#38=FACE_BOUND('',#81,.T.);
#39=FACE_BOUND('',#83,.T.);
#40=FACE_BOUND('',#85,.T.);
#41=FACE_OUTER_BOUND('',#56,.T.);
#42=FACE_OUTER_BOUND('',#58,.T.);
#43=FACE_OUTER_BOUND('',#60,.T.);
#44=FACE_OUTER_BOUND('',#62,.T.);
#45=FACE_OUTER_BOUND('',#64,.T.);
#46=FACE_OUTER_BOUND('',#66,.T.);
#47=FACE_OUTER_BOUND('',#68,.T.);
#48=FACE_OUTER_BOUND('',#70,.T.);
#49=FACE_OUTER_BOUND('',#72,.T.);
#50=FACE_OUTER_BOUND('',#74,.T.);
#51=FACE_OUTER_BOUND('',#76,.T.);
#52=FACE_OUTER_BOUND('',#78,.T.);
#53=FACE_OUTER_BOUND('',#80,.T.);
#54=FACE_OUTER_BOUND('',#82,.T.);
#55=FACE_OUTER_BOUND('',#84,.T.);
#56=EDGE_LOOP('',(#131));
#57=EDGE_LOOP('',(#132));
#58=EDGE_LOOP('',(#133));
#59=EDGE_LOOP('',(#134));
#60=EDGE_LOOP('',(#135));
#61=EDGE_LOOP('',(#136));
#62=EDGE_LOOP('',(#137));
#63=EDGE_LOOP('',(#138));
#64=EDGE_LOOP('',(#139));
#65=EDGE_LOOP('',(#140));
#66=EDGE_LOOP('',(#141));
#67=EDGE_LOOP('',(#142));
#68=EDGE_LOOP('',(#143));
#69=EDGE_LOOP('',(#144));
#70=EDGE_LOOP('',(#145));
#71=EDGE_LOOP('',(#146));
#72=EDGE_LOOP('',(#147));
#73=EDGE_LOOP('',(#148));
#74=EDGE_LOOP('',(#149));
#75=EDGE_LOOP('',(#150));
#76=EDGE_LOOP('',(#151));
#77=EDGE_LOOP('',(#152));
#78=EDGE_LOOP('',(#153));
#79=EDGE_LOOP('',(#154));
#80=EDGE_LOOP('',(#155));
#81=EDGE_LOOP('',(#156));
#82=EDGE_LOOP('',(#157));
#83=EDGE_LOOP('',(#158));
#84=EDGE_LOOP('',(#159));
#85=EDGE_LOOP('',(#160));
#86=CIRCLE('',#201,3.20927689005657);
#87=CIRCLE('',#202,3.30294410898111);
#88=CIRCLE('',#204,3.42820323027624);
#89=CIRCLE('',#206,4.50000000000149);
#90=CIRCLE('',#208,4.50000000000143);
#91=CIRCLE('',#210,4.27764571353105);
#92=CIRCLE('',#212,3.29647238195819);
#93=CIRCLE('',#214,2.99999999999954);
#94=CIRCLE('',#216,2.99999999999686);
#95=CIRCLE('',#218,2.69999999999746);
#96=CIRCLE('',#220,2.99999999999673);
#97=CIRCLE('',#222,2.99999999999638);
#98=CIRCLE('',#224,2.69999999999709);
#99=CIRCLE('',#226,2.04999999999563);
#100=CIRCLE('',#228,2.04999999999563);
#101=VERTEX_POINT('',#294);
#102=VERTEX_POINT('',#296);
#103=VERTEX_POINT('',#299);
#104=VERTEX_POINT('',#302);
#105=VERTEX_POINT('',#305);
#106=VERTEX_POINT('',#308);
#107=VERTEX_POINT('',#311);
#108=VERTEX_POINT('',#314);
#109=VERTEX_POINT('',#317);
#110=VERTEX_POINT('',#320);
#111=VERTEX_POINT('',#323);
#112=VERTEX_POINT('',#326);
#113=VERTEX_POINT('',#329);
#114=VERTEX_POINT('',#332);
#115=VERTEX_POINT('',#335);
#116=EDGE_CURVE('',#101,#101,#86,.T.);
#117=EDGE_CURVE('',#102,#102,#87,.T.);
#118=EDGE_CURVE('',#103,#103,#88,.T.);
#119=EDGE_CURVE('',#104,#104,#89,.T.);
#120=EDGE_CURVE('',#105,#105,#90,.T.);
#121=EDGE_CURVE('',#106,#106,#91,.T.);
#122=EDGE_CURVE('',#107,#107,#92,.T.);
#123=EDGE_CURVE('',#108,#108,#93,.T.);
#124=EDGE_CURVE('',#109,#109,#94,.T.);
#125=EDGE_CURVE('',#110,#110,#95,.T.);
#126=EDGE_CURVE('',#111,#111,#96,.T.);
#127=EDGE_CURVE('',#112,#112,#97,.T.);
#128=EDGE_CURVE('',#113,#113,#98,.T.);
#129=EDGE_CURVE('',#114,#114,#99,.T.);
#130=EDGE_CURVE('',#115,#115,#100,.T.);
#131=ORIENTED_EDGE('',*,*,#116,.T.);
#132=ORIENTED_EDGE('',*,*,#117,.F.);
#133=ORIENTED_EDGE('',*,*,#117,.T.);
#134=ORIENTED_EDGE('',*,*,#118,.F.);
#135=ORIENTED_EDGE('',*,*,#118,.T.);
#136=ORIENTED_EDGE('',*,*,#119,.F.);
#137=ORIENTED_EDGE('',*,*,#119,.T.);
#138=ORIENTED_EDGE('',*,*,#120,.F.);
#139=ORIENTED_EDGE('',*,*,#120,.T.);
#140=ORIENTED_EDGE('',*,*,#121,.F.);
#141=ORIENTED_EDGE('',*,*,#121,.T.);
#142=ORIENTED_EDGE('',*,*,#122,.F.);
#143=ORIENTED_EDGE('',*,*,#122,.T.);
#144=ORIENTED_EDGE('',*,*,#123,.F.);
#145=ORIENTED_EDGE('',*,*,#123,.T.);
#146=ORIENTED_EDGE('',*,*,#124,.F.);
#147=ORIENTED_EDGE('',*,*,#124,.T.);
#148=ORIENTED_EDGE('',*,*,#125,.F.);
#149=ORIENTED_EDGE('',*,*,#126,.F.);
#150=ORIENTED_EDGE('',*,*,#125,.T.);
#151=ORIENTED_EDGE('',*,*,#126,.T.);
#152=ORIENTED_EDGE('',*,*,#127,.F.);
#153=ORIENTED_EDGE('',*,*,#127,.T.);
#154=ORIENTED_EDGE('',*,*,#128,.F.);
#155=ORIENTED_EDGE('',*,*,#128,.T.);
#156=ORIENTED_EDGE('',*,*,#129,.F.);
#157=ORIENTED_EDGE('',*,*,#129,.T.);
#158=ORIENTED_EDGE('',*,*,#130,.F.);
#159=ORIENTED_EDGE('',*,*,#116,.F.);
#160=ORIENTED_EDGE('',*,*,#130,.T.);
#161=TOROIDAL_SURFACE('',#200,3.20927689005656,0.0999999999999091);
#162=TOROIDAL_SURFACE('',#209,4.20000000000143,0.3);
#163=TOROIDAL_SURFACE('',#213,3.39999999999918,0.399999999999636);
#164=TOROIDAL_SURFACE('',#223,2.69999999999711,0.299999999999272);
#165=ADVANCED_FACE('',(#41,#26),#161,.T.);
#166=ADVANCED_FACE('',(#42,#27),#22,.T.);
#167=ADVANCED_FACE('',(#43,#28),#23,.T.);
#168=ADVANCED_FACE('',(#44,#29),#18,.T.);
#169=ADVANCED_FACE('',(#45,#30),#162,.T.);
#170=ADVANCED_FACE('',(#46,#31),#24,.T.);
#171=ADVANCED_FACE('',(#47,#32),#163,.F.);
#172=ADVANCED_FACE('',(#48,#33),#19,.T.);
#173=ADVANCED_FACE('',(#49,#34),#25,.T.);
#174=ADVANCED_FACE('',(#50,#35),#15,.T.);
#175=ADVANCED_FACE('',(#51,#36),#20,.T.);
#176=ADVANCED_FACE('',(#52,#37),#164,.T.);
#177=ADVANCED_FACE('',(#53,#38),#16,.T.);
#178=ADVANCED_FACE('',(#54,#39),#21,.F.);
#179=ADVANCED_FACE('',(#55,#40),#17,.T.);
#180=CLOSED_SHELL('',(#165,#166,#167,#168,#169,#170,#171,#172,#173,#174,
#175,#176,#177,#178,#179));
#181=DERIVED_UNIT_ELEMENT(#183,0.);
#182=DERIVED_UNIT_ELEMENT(#343,0.);
#183=(
MASS_UNIT()
NAMED_UNIT(*)
SI_UNIT($,.GRAM.)
);
#184=DERIVED_UNIT((#181,#182));
#185=MEASURE_REPRESENTATION_ITEM('density measure',
POSITIVE_RATIO_MEASURE(1.),#184);
#186=PROPERTY_DEFINITION_REPRESENTATION(#191,#188);
#187=PROPERTY_DEFINITION_REPRESENTATION(#192,#189);
#188=REPRESENTATION('material name',(#190),#340);
#189=REPRESENTATION('density',(#185),#340);
#190=DESCRIPTIVE_REPRESENTATION_ITEM('\X2\C77CBC18\X0\','\X2\C77CBC18\X0\');
#191=PROPERTY_DEFINITION('material property','material name',#350);
#192=PROPERTY_DEFINITION('material property','density of part',#350);
#193=DATE_TIME_ROLE('creation_date');
#194=APPLIED_DATE_AND_TIME_ASSIGNMENT(#195,#193,(#350));
#195=DATE_AND_TIME(#196,#197);
#196=CALENDAR_DATE(2019,14,3);
#197=LOCAL_TIME(0,30,32.,#198);
#198=COORDINATED_UNIVERSAL_TIME_OFFSET(0,0,.BEHIND.);
#199=AXIS2_PLACEMENT_3D('placement',#292,#230,#231);
#200=AXIS2_PLACEMENT_3D('',#293,#232,#233);
#201=AXIS2_PLACEMENT_3D('',#295,#234,#235);
#202=AXIS2_PLACEMENT_3D('',#297,#236,#237);
#203=AXIS2_PLACEMENT_3D('',#298,#238,#239);
#204=AXIS2_PLACEMENT_3D('',#300,#240,#241);
#205=AXIS2_PLACEMENT_3D('',#301,#242,#243);
#206=AXIS2_PLACEMENT_3D('',#303,#244,#245);
#207=AXIS2_PLACEMENT_3D('',#304,#246,#247);
#208=AXIS2_PLACEMENT_3D('',#306,#248,#249);
#209=AXIS2_PLACEMENT_3D('',#307,#250,#251);
#210=AXIS2_PLACEMENT_3D('',#309,#252,#253);
#211=AXIS2_PLACEMENT_3D('',#310,#254,#255);
#212=AXIS2_PLACEMENT_3D('',#312,#256,#257);
#213=AXIS2_PLACEMENT_3D('',#313,#258,#259);
#214=AXIS2_PLACEMENT_3D('',#315,#260,#261);
#215=AXIS2_PLACEMENT_3D('',#316,#262,#263);
#216=AXIS2_PLACEMENT_3D('',#318,#264,#265);
#217=AXIS2_PLACEMENT_3D('',#319,#266,#267);
#218=AXIS2_PLACEMENT_3D('',#321,#268,#269);
#219=AXIS2_PLACEMENT_3D('',#322,#270,#271);
#220=AXIS2_PLACEMENT_3D('',#324,#272,#273);
#221=AXIS2_PLACEMENT_3D('',#325,#274,#275);
#222=AXIS2_PLACEMENT_3D('',#327,#276,#277);
#223=AXIS2_PLACEMENT_3D('',#328,#278,#279);
#224=AXIS2_PLACEMENT_3D('',#330,#280,#281);
#225=AXIS2_PLACEMENT_3D('',#331,#282,#283);
#226=AXIS2_PLACEMENT_3D('',#333,#284,#285);
#227=AXIS2_PLACEMENT_3D('',#334,#286,#287);
#228=AXIS2_PLACEMENT_3D('',#336,#288,#289);
#229=AXIS2_PLACEMENT_3D('',#337,#290,#291);
#230=DIRECTION('axis',(0.,0.,1.));
#231=DIRECTION('refdir',(1.,0.,0.));
#232=DIRECTION('center_axis',(1.,7.3947171782455E-14,0.));
#233=DIRECTION('ref_axis',(0.,0.,-1.));
#234=DIRECTION('center_axis',(1.,7.3947171782455E-14,0.));
#235=DIRECTION('ref_axis',(0.,0.,-1.));
#236=DIRECTION('center_axis',(1.,7.3947171782455E-14,0.));
#237=DIRECTION('ref_axis',(0.,0.,-1.));
#238=DIRECTION('center_axis',(1.,7.3947171782455E-14,0.));
#239=DIRECTION('ref_axis',(-7.3947171782455E-14,1.,0.));
#240=DIRECTION('center_axis',(1.,7.3947171782455E-14,0.));
#241=DIRECTION('ref_axis',(0.,0.,-1.));
#242=DIRECTION('center_axis',(1.,7.3947171782455E-14,0.));
#243=DIRECTION('ref_axis',(-7.3947171782455E-14,1.,0.));
#244=DIRECTION('center_axis',(1.,7.3947171782455E-14,0.));
#245=DIRECTION('ref_axis',(0.,0.,-1.));
#246=DIRECTION('center_axis',(1.,7.3947171782455E-14,0.));
#247=DIRECTION('ref_axis',(-7.3947171782455E-14,1.,0.));
#248=DIRECTION('center_axis',(1.,7.3947171782455E-14,0.));
#249=DIRECTION('ref_axis',(0.,0.,-1.));
#250=DIRECTION('center_axis',(1.,7.3947171782455E-14,0.));
#251=DIRECTION('ref_axis',(0.,0.,-1.));
#252=DIRECTION('center_axis',(1.,7.3947171782455E-14,0.));
#253=DIRECTION('ref_axis',(0.,0.,-1.));
#254=DIRECTION('center_axis',(-1.,-7.3947171782455E-14,0.));
#255=DIRECTION('ref_axis',(-7.3947171782455E-14,1.,0.));
#256=DIRECTION('center_axis',(1.,7.3947171782455E-14,0.));
#257=DIRECTION('ref_axis',(0.,0.,-1.));
#258=DIRECTION('center_axis',(1.,7.3947171782455E-14,0.));
#259=DIRECTION('ref_axis',(0.,0.,-1.));
#260=DIRECTION('center_axis',(1.,7.3947171782455E-14,0.));
#261=DIRECTION('ref_axis',(0.,0.,-1.));
#262=DIRECTION('center_axis',(1.,7.3947171782455E-14,0.));
#263=DIRECTION('ref_axis',(-7.3947171782455E-14,1.,0.));
#264=DIRECTION('center_axis',(1.,7.3947171782455E-14,0.));
#265=DIRECTION('ref_axis',(0.,0.,-1.));
#266=DIRECTION('center_axis',(-1.,-7.3947171782455E-14,0.));
#267=DIRECTION('ref_axis',(-7.3947171782455E-14,1.,0.));
#268=DIRECTION('center_axis',(1.,7.3947171782455E-14,0.));
#269=DIRECTION('ref_axis',(0.,0.,-1.));
#270=DIRECTION('center_axis',(-1.,-7.3947171782455E-14,0.));
#271=DIRECTION('ref_axis',(0.,0.,1.));
#272=DIRECTION('center_axis',(1.,7.3947171782455E-14,0.));
#273=DIRECTION('ref_axis',(0.,0.,-1.));
#274=DIRECTION('center_axis',(1.,7.3947171782455E-14,0.));
#275=DIRECTION('ref_axis',(-7.3947171782455E-14,1.,0.));
#276=DIRECTION('center_axis',(1.,7.3947171782455E-14,0.));
#277=DIRECTION('ref_axis',(0.,0.,-1.));
#278=DIRECTION('center_axis',(1.,7.3947171782455E-14,0.));
#279=DIRECTION('ref_axis',(0.,0.,-1.));
#280=DIRECTION('center_axis',(1.,7.3947171782455E-14,0.));
#281=DIRECTION('ref_axis',(0.,0.,-1.));
#282=DIRECTION('center_axis',(1.,7.3947171782455E-14,0.));
#283=DIRECTION('ref_axis',(0.,0.,-1.));
#284=DIRECTION('center_axis',(1.,7.3947171782455E-14,0.));
#285=DIRECTION('ref_axis',(0.,0.,-1.));
#286=DIRECTION('center_axis',(1.,7.3947171782455E-14,0.));
#287=DIRECTION('ref_axis',(-7.3947171782455E-14,1.,0.));
#288=DIRECTION('center_axis',(1.,7.3947171782455E-14,0.));
#289=DIRECTION('ref_axis',(0.,0.,-1.));
#290=DIRECTION('center_axis',(-1.,-7.3947171782455E-14,0.));
#291=DIRECTION('ref_axis',(0.,0.,1.));
#292=CARTESIAN_POINT('',(0.,0.,0.));
#293=CARTESIAN_POINT('Origin',(0.0999999999987819,7.39471717815543E-15,
0.));
#294=CARTESIAN_POINT('',(-1.36446409726432E-12,3.20927689005657,0.));
#295=CARTESIAN_POINT('Origin',(-1.12714714777784E-12,-8.33493437608322E-26,
0.));
#296=CARTESIAN_POINT('',(0.0649792618720635,3.30294410898111,0.));
#297=CARTESIAN_POINT('Origin',(0.0649792618723077,4.80503263996867E-15,
0.));
#298=CARTESIAN_POINT('Origin',(0.232489630935417,1.71919506764208E-14,0.));
#299=CARTESIAN_POINT('',(0.399999999998272,3.42820323027627,0.));
#300=CARTESIAN_POINT('Origin',(0.399999999998526,2.9578868712873E-14,0.));
#301=CARTESIAN_POINT('Origin',(2.39999999999857,1.77473212277786E-13,0.));
#302=CARTESIAN_POINT('',(4.39999999999827,4.50000000000182,0.));
#303=CARTESIAN_POINT('Origin',(4.3999999999986,3.25367555842699E-13,0.));
#304=CARTESIAN_POINT('Origin',(4.83284431797585,3.57375168979222E-13,0.));
#305=CARTESIAN_POINT('',(5.26568863595276,4.50000000000182,0.));
#306=CARTESIAN_POINT('Origin',(5.26568863595309,3.89382782115744E-13,0.));
#307=CARTESIAN_POINT('Origin',(5.26568863595305,3.89382782115741E-13,0.));
#308=CARTESIAN_POINT('',(5.55546638383976,4.27764571353146,0.));
#309=CARTESIAN_POINT('Origin',(5.55546638384007,4.10811027017476E-13,0.));
#310=CARTESIAN_POINT('Origin',(5.686918684755,4.20531552894431E-13,0.));
#311=CARTESIAN_POINT('',(5.81837098566969,3.29647238195862,0.));
#312=CARTESIAN_POINT('Origin',(5.81837098566993,4.30252078771386E-13,0.));
#313=CARTESIAN_POINT('Origin',(6.20474131618519,4.58823071973642E-13,0.));
#314=CARTESIAN_POINT('',(6.20474131618494,3.,0.));
#315=CARTESIAN_POINT('Origin',(6.20474131618516,4.5882307197364E-13,0.));
#316=CARTESIAN_POINT('Origin',(12.049287438135,8.91010728043947E-13,0.));
#317=CARTESIAN_POINT('',(17.8938335600847,2.99999999999818,0.));
#318=CARTESIAN_POINT('Origin',(17.8938335600849,1.32319838411425E-12,0.));
#319=CARTESIAN_POINT('Origin',(18.7445258330276,1.38610467175556E-12,0.));
#320=CARTESIAN_POINT('',(19.5952181059702,2.69999999999891,0.));
#321=CARTESIAN_POINT('Origin',(19.5952181059704,1.44901095939686E-12,0.));
#322=CARTESIAN_POINT('Origin',(19.5952181059702,2.99999999999818,0.));
#323=CARTESIAN_POINT('',(19.5952181059702,2.99999999999818,0.));
#324=CARTESIAN_POINT('Origin',(19.5952181059704,1.44901095939686E-12,0.));
#325=CARTESIAN_POINT('Origin',(21.9476090529847,1.62296361685523E-12,0.));
#326=CARTESIAN_POINT('',(24.2999999999988,2.99999999999818,0.));
#327=CARTESIAN_POINT('Origin',(24.299999999999,1.79691627431359E-12,0.));
#328=CARTESIAN_POINT('Origin',(24.299999999999,1.79691627431358E-12,0.));
#329=CARTESIAN_POINT('',(24.5999999999981,2.69999999999891,0.));
#330=CARTESIAN_POINT('Origin',(24.5999999999983,1.81910042584827E-12,0.));
#331=CARTESIAN_POINT('Origin',(24.599999999999,2.04999999999745,0.));
#332=CARTESIAN_POINT('',(24.599999999999,2.04999999999745,0.));
#333=CARTESIAN_POINT('Origin',(24.5999999999992,1.81910042584833E-12,0.));
#334=CARTESIAN_POINT('Origin',(12.2999999999994,9.09550212924154E-13,0.));
#335=CARTESIAN_POINT('',(-4.54636328584002E-13,2.04999999999563,0.));
#336=CARTESIAN_POINT('Origin',(-3.03044626430292E-13,-2.24092930483907E-26,
0.));
#337=CARTESIAN_POINT('Origin',(-1.36446409726432E-12,3.20927689005657,0.));
#338=UNCERTAINTY_MEASURE_WITH_UNIT(LENGTH_MEASURE(0.01),#342,
'DISTANCE_ACCURACY_VALUE',
'Maximum model space distance between geometric entities at asserted c
onnectivities');
#339=UNCERTAINTY_MEASURE_WITH_UNIT(LENGTH_MEASURE(0.01),#342,
'DISTANCE_ACCURACY_VALUE',
'Maximum model space distance between geometric entities at asserted c
onnectivities');
#340=(
GEOMETRIC_REPRESENTATION_CONTEXT(3)
GLOBAL_UNCERTAINTY_ASSIGNED_CONTEXT((#338))
GLOBAL_UNIT_ASSIGNED_CONTEXT((#342,#345,#344))
REPRESENTATION_CONTEXT('','3D')
);
#341=(
GEOMETRIC_REPRESENTATION_CONTEXT(3)
GLOBAL_UNCERTAINTY_ASSIGNED_CONTEXT((#339))
GLOBAL_UNIT_ASSIGNED_CONTEXT((#342,#345,#344))
REPRESENTATION_CONTEXT('','3D')
);
#342=(
LENGTH_UNIT()
NAMED_UNIT(*)
SI_UNIT(.MILLI.,.METRE.)
);
#343=(
LENGTH_UNIT()
NAMED_UNIT(*)
SI_UNIT(.CENTI.,.METRE.)
);
#344=(
NAMED_UNIT(*)
SI_UNIT($,.STERADIAN.)
SOLID_ANGLE_UNIT()
);
#345=(
NAMED_UNIT(*)
PLANE_ANGLE_UNIT()
SI_UNIT($,.RADIAN.)
);
#346=SHAPE_DEFINITION_REPRESENTATION(#347,#348);
#347=PRODUCT_DEFINITION_SHAPE('',$,#350);
#348=SHAPE_REPRESENTATION('',(#199),#340);
#349=PRODUCT_DEFINITION_CONTEXT('part definition',#354,'design');
#350=PRODUCT_DEFINITION('SPC-6M','SPC-6M',#351,#349);
#351=PRODUCT_DEFINITION_FORMATION('',$,#356);
#352=PRODUCT_RELATED_PRODUCT_CATEGORY('SPC-6M','SPC-6M',(#356));
#353=APPLICATION_PROTOCOL_DEFINITION('international standard',
'automotive_design',2009,#354);
#354=APPLICATION_CONTEXT(
'Core Data for Automotive Mechanical Design Process');
#355=PRODUCT_CONTEXT('part definition',#354,'mechanical');
#356=PRODUCT('SPC-6M','SPC-6M',$,(#355));
#357=PRESENTATION_STYLE_ASSIGNMENT((#358));
#358=SURFACE_STYLE_USAGE(.BOTH.,#359);
#359=SURFACE_SIDE_STYLE('',(#360));
#360=SURFACE_STYLE_FILL_AREA(#361);
#361=FILL_AREA_STYLE('',(#362));
#362=FILL_AREA_STYLE_COLOUR('',#363);
#363=COLOUR_RGB('',0.749019607843137,0.749019607843137,0.749019607843137);
ENDSEC;
END-ISO-10303-21;
