ISO-10303-21;
HEADER;
/* Generated by software containing ST-Developer
 * from STEP Tools, Inc. (www.steptools.com) 
 */

FILE_DESCRIPTION(
/* description */ (''),
/* implementation_level */ '2;1');

FILE_NAME(
/* name */ 'Z:\\Geberit\\Export\\NewStep\\90984.stp',
/* time_stamp */ '2014-04-03T10:25:12+02:00',
/* author */ ('bruh'),
/* organization */ (''),
/* preprocessor_version */ 'ST-DEVELOPER v15.2',
/* originating_system */ 'Autodesk Inventor 2014',
/* authorisation */ '');

FILE_SCHEMA (('AUTOMOTIVE_DESIGN { 1 0 10303 214 3 1 1 }'));
ENDSEC;

DATA;
#10=ITEM_DEFINED_TRANSFORMATION($,$,#180,#208);
#11=ITEM_DEFINED_TRANSFORMATION($,$,#198,#209);
#12=(
REPRESENTATION_RELATIONSHIP($,$,#402,#404)
REPRESENTATION_RELATIONSHIP_WITH_TRANSFORMATION(#10)
SHAPE_REPRESENTATION_RELATIONSHIP()
);
#13=(
REPRESENTATION_RELATIONSHIP($,$,#403,#404)
REPRESENTATION_RELATIONSHIP_WITH_TRANSFORMATION(#11)
SHAPE_REPRESENTATION_RELATIONSHIP()
);
#14=CONTEXT_DEPENDENT_SHAPE_REPRESENTATION(#12,#400);
#15=CONTEXT_DEPENDENT_SHAPE_REPRESENTATION(#13,#401);
#16=NEXT_ASSEMBLY_USAGE_OCCURRENCE('102552:1',$,$,#408,#406,$);
#17=NEXT_ASSEMBLY_USAGE_OCCURRENCE('39006:1',$,$,#408,#407,$);
#18=SHAPE_REPRESENTATION_RELATIONSHIP('SRR','None',#402,#20);
#19=SHAPE_REPRESENTATION_RELATIONSHIP('SRR','None',#403,#21);
#20=ADVANCED_BREP_SHAPE_REPRESENTATION($,(#178),#385);
#21=ADVANCED_BREP_SHAPE_REPRESENTATION($,(#179),#386);
#22=STYLED_ITEM($,(#418),#178);
#23=STYLED_ITEM($,(#419),#179);
#24=CONICAL_SURFACE($,#187,21.,45.);
#25=CONICAL_SURFACE($,#191,21.,45.);
#26=CIRCLE($,#183,19.5);
#27=CIRCLE($,#184,17.65);
#28=CIRCLE($,#186,19.5);
#29=CIRCLE($,#188,22.5);
#30=CIRCLE($,#190,22.5);
#31=CIRCLE($,#192,19.5);
#32=CIRCLE($,#194,19.5);
#33=CIRCLE($,#196,17.65);
#34=CIRCLE($,#200,16.);
#35=CIRCLE($,#201,16.);
#36=CIRCLE($,#203,17.5);
#37=CIRCLE($,#205,17.5);
#38=PLANE($,#182);
#39=PLANE($,#195);
#40=PLANE($,#202);
#41=PLANE($,#206);
#42=FACE_BOUND($,#71,.T.);
#43=FACE_BOUND($,#73,.T.);
#44=FACE_BOUND($,#75,.T.);
#45=FACE_BOUND($,#77,.T.);
#46=FACE_BOUND($,#78,.T.);
#47=FACE_BOUND($,#79,.T.);
#48=FACE_BOUND($,#80,.T.);
#49=FACE_BOUND($,#82,.T.);
#50=FACE_BOUND($,#84,.T.);
#51=FACE_BOUND($,#85,.T.);
#52=FACE_BOUND($,#86,.T.);
#53=FACE_BOUND($,#87,.T.);
#54=FACE_BOUND($,#88,.T.);
#55=FACE_BOUND($,#89,.T.);
#56=FACE_BOUND($,#91,.T.);
#57=FACE_BOUND($,#92,.T.);
#58=FACE_BOUND($,#93,.T.);
#59=FACE_BOUND($,#95,.T.);
#60=FACE_BOUND($,#96,.T.);
#61=FACE_BOUND($,#97,.T.);
#62=FACE_OUTER_BOUND($,#70,.T.);
#63=FACE_OUTER_BOUND($,#72,.T.);
#64=FACE_OUTER_BOUND($,#74,.T.);
#65=FACE_OUTER_BOUND($,#76,.T.);
#66=FACE_OUTER_BOUND($,#81,.T.);
#67=FACE_OUTER_BOUND($,#83,.T.);
#68=FACE_OUTER_BOUND($,#90,.T.);
#69=FACE_OUTER_BOUND($,#94,.T.);
#70=EDGE_LOOP($,(#128));
#71=EDGE_LOOP($,(#129));
#72=EDGE_LOOP($,(#130));
#73=EDGE_LOOP($,(#131));
#74=EDGE_LOOP($,(#132));
#75=EDGE_LOOP($,(#133));
#76=EDGE_LOOP($,(#134));
#77=EDGE_LOOP($,(#135));
#78=EDGE_LOOP($,(#136));
#79=EDGE_LOOP($,(#137));
#80=EDGE_LOOP($,(#138));
#81=EDGE_LOOP($,(#139));
#82=EDGE_LOOP($,(#140));
#83=EDGE_LOOP($,(#141));
#84=EDGE_LOOP($,(#142));
#85=EDGE_LOOP($,(#143));
#86=EDGE_LOOP($,(#144));
#87=EDGE_LOOP($,(#145));
#88=EDGE_LOOP($,(#146));
#89=EDGE_LOOP($,(#147));
#90=EDGE_LOOP($,(#148));
#91=EDGE_LOOP($,(#149));
#92=EDGE_LOOP($,(#150));
#93=EDGE_LOOP($,(#151));
#94=EDGE_LOOP($,(#152));
#95=EDGE_LOOP($,(#153));
#96=EDGE_LOOP($,(#154));
#97=EDGE_LOOP($,(#155));
#98=B_SPLINE_CURVE_WITH_KNOTS($,3,(#273,#274,#275,#276,#277,#278,#279,#280,
#281,#282,#283,#284,#285,#286,#287,#288,#289,#290,#291,#292,#293,#294,#295,
#296,#297,#298,#299,#300,#301,#302,#303,#304,#305,#306),.UNSPECIFIED.,.T.,
 .F.,(4,2,2,2,2,2,2,2,2,2,2,2,2,2,2,2,4),(0.,0.0753538963777084,0.150707792755417,
0.226090666038543,0.301473539321668,0.377206643937975,0.452939748554281,
0.528329878039628,0.603720007524975,0.679110137010321,0.754500266495668,
0.830233371111975,0.905966475728281,0.981349349011407,1.05673222229453,
1.13208611867224,1.20744001504995),.UNSPECIFIED.);
#99=B_SPLINE_CURVE_WITH_KNOTS($,3,(#308,#309,#310,#311,#312,#313,#314,#315,
#316,#317,#318,#319,#320,#321,#322,#323,#324,#325,#326,#327,#328,#329,#330,
#331,#332,#333,#334,#335,#336,#337,#338,#339,#340,#341),.UNSPECIFIED.,.T.,
 .F.,(4,2,2,2,2,2,2,2,2,2,2,2,2,2,2,2,4),(0.,0.0753642592093077,0.150728518418615,
0.226139974558712,0.301551430698809,0.377535768295553,0.453520105892297,
0.528945151925795,0.604370197959292,0.67979524399279,0.755220290026287,
0.831204627623031,0.907188965219776,0.982600421359872,1.05801187749997,
1.13337613670928,1.20874039591858),.UNSPECIFIED.);
#100=VERTEX_POINT($,#272);
#101=VERTEX_POINT($,#307);
#102=VERTEX_POINT($,#343);
#103=VERTEX_POINT($,#345);
#104=VERTEX_POINT($,#348);
#105=VERTEX_POINT($,#351);
#106=VERTEX_POINT($,#354);
#107=VERTEX_POINT($,#357);
#108=VERTEX_POINT($,#360);
#109=VERTEX_POINT($,#363);
#110=VERTEX_POINT($,#368);
#111=VERTEX_POINT($,#370);
#112=VERTEX_POINT($,#373);
#113=VERTEX_POINT($,#376);
#114=EDGE_CURVE($,#100,#100,#98,.T.);
#115=EDGE_CURVE($,#101,#101,#99,.T.);
#116=EDGE_CURVE($,#102,#102,#26,.T.);
#117=EDGE_CURVE($,#103,#103,#27,.T.);
#118=EDGE_CURVE($,#104,#104,#28,.T.);
#119=EDGE_CURVE($,#105,#105,#29,.T.);
#120=EDGE_CURVE($,#106,#106,#30,.T.);
#121=EDGE_CURVE($,#107,#107,#31,.T.);
#122=EDGE_CURVE($,#108,#108,#32,.T.);
#123=EDGE_CURVE($,#109,#109,#33,.T.);
#124=EDGE_CURVE($,#110,#110,#34,.T.);
#125=EDGE_CURVE($,#111,#111,#35,.T.);
#126=EDGE_CURVE($,#112,#112,#36,.T.);
#127=EDGE_CURVE($,#113,#113,#37,.T.);
#128=ORIENTED_EDGE($,*,*,#114,.F.);
#129=ORIENTED_EDGE($,*,*,#115,.F.);
#130=ORIENTED_EDGE($,*,*,#116,.F.);
#131=ORIENTED_EDGE($,*,*,#117,.T.);
#132=ORIENTED_EDGE($,*,*,#118,.F.);
#133=ORIENTED_EDGE($,*,*,#116,.T.);
#134=ORIENTED_EDGE($,*,*,#119,.F.);
#135=ORIENTED_EDGE($,*,*,#118,.T.);
#136=ORIENTED_EDGE($,*,*,#114,.T.);
#137=ORIENTED_EDGE($,*,*,#120,.F.);
#138=ORIENTED_EDGE($,*,*,#119,.T.);
#139=ORIENTED_EDGE($,*,*,#121,.F.);
#140=ORIENTED_EDGE($,*,*,#120,.T.);
#141=ORIENTED_EDGE($,*,*,#122,.F.);
#142=ORIENTED_EDGE($,*,*,#121,.T.);
#143=ORIENTED_EDGE($,*,*,#123,.F.);
#144=ORIENTED_EDGE($,*,*,#122,.T.);
#145=ORIENTED_EDGE($,*,*,#115,.T.);
#146=ORIENTED_EDGE($,*,*,#117,.F.);
#147=ORIENTED_EDGE($,*,*,#123,.T.);
#148=ORIENTED_EDGE($,*,*,#124,.F.);
#149=ORIENTED_EDGE($,*,*,#125,.F.);
#150=ORIENTED_EDGE($,*,*,#124,.T.);
#151=ORIENTED_EDGE($,*,*,#126,.F.);
#152=ORIENTED_EDGE($,*,*,#126,.T.);
#153=ORIENTED_EDGE($,*,*,#127,.T.);
#154=ORIENTED_EDGE($,*,*,#125,.T.);
#155=ORIENTED_EDGE($,*,*,#127,.F.);
#156=CYLINDRICAL_SURFACE($,#181,2.);
#157=CYLINDRICAL_SURFACE($,#185,19.5);
#158=CYLINDRICAL_SURFACE($,#189,22.5);
#159=CYLINDRICAL_SURFACE($,#193,19.5);
#160=CYLINDRICAL_SURFACE($,#197,17.65);
#161=CYLINDRICAL_SURFACE($,#199,16.);
#162=CYLINDRICAL_SURFACE($,#204,17.5);
#163=ADVANCED_FACE($,(#62,#42),#156,.F.);
#164=ADVANCED_FACE($,(#63,#43),#38,.T.);
#165=ADVANCED_FACE($,(#64,#44),#157,.T.);
#166=ADVANCED_FACE($,(#65,#45),#24,.T.);
#167=ADVANCED_FACE($,(#46,#47,#48),#158,.T.);
#168=ADVANCED_FACE($,(#66,#49),#25,.T.);
#169=ADVANCED_FACE($,(#67,#50),#159,.T.);
#170=ADVANCED_FACE($,(#51,#52),#39,.T.);
#171=ADVANCED_FACE($,(#53,#54,#55),#160,.F.);
#172=ADVANCED_FACE($,(#68,#56),#161,.F.);
#173=ADVANCED_FACE($,(#57,#58),#40,.T.);
#174=ADVANCED_FACE($,(#69,#59),#162,.T.);
#175=ADVANCED_FACE($,(#60,#61),#41,.F.);
#176=CLOSED_SHELL($,(#163,#164,#165,#166,#167,#168,#169,#170,#171));
#177=CLOSED_SHELL($,(#172,#173,#174,#175));
#178=MANIFOLD_SOLID_BREP('Volumenk\X\F6rper1',#176);
#179=MANIFOLD_SOLID_BREP('Volumenk\X\F6rper1',#177);
#180=AXIS2_PLACEMENT_3D('placement',#270,#210,#211);
#181=AXIS2_PLACEMENT_3D($,#271,#212,#213);
#182=AXIS2_PLACEMENT_3D($,#342,#214,#215);
#183=AXIS2_PLACEMENT_3D($,#344,#216,#217);
#184=AXIS2_PLACEMENT_3D($,#346,#218,#219);
#185=AXIS2_PLACEMENT_3D($,#347,#220,#221);
#186=AXIS2_PLACEMENT_3D($,#349,#222,#223);
#187=AXIS2_PLACEMENT_3D($,#350,#224,#225);
#188=AXIS2_PLACEMENT_3D($,#352,#226,#227);
#189=AXIS2_PLACEMENT_3D($,#353,#228,#229);
#190=AXIS2_PLACEMENT_3D($,#355,#230,#231);
#191=AXIS2_PLACEMENT_3D($,#356,#232,#233);
#192=AXIS2_PLACEMENT_3D($,#358,#234,#235);
#193=AXIS2_PLACEMENT_3D($,#359,#236,#237);
#194=AXIS2_PLACEMENT_3D($,#361,#238,#239);
#195=AXIS2_PLACEMENT_3D($,#362,#240,#241);
#196=AXIS2_PLACEMENT_3D($,#364,#242,#243);
#197=AXIS2_PLACEMENT_3D($,#365,#244,#245);
#198=AXIS2_PLACEMENT_3D('placement',#366,#246,#247);
#199=AXIS2_PLACEMENT_3D($,#367,#248,#249);
#200=AXIS2_PLACEMENT_3D($,#369,#250,#251);
#201=AXIS2_PLACEMENT_3D($,#371,#252,#253);
#202=AXIS2_PLACEMENT_3D($,#372,#254,#255);
#203=AXIS2_PLACEMENT_3D($,#374,#256,#257);
#204=AXIS2_PLACEMENT_3D($,#375,#258,#259);
#205=AXIS2_PLACEMENT_3D($,#377,#260,#261);
#206=AXIS2_PLACEMENT_3D($,#378,#262,#263);
#207=AXIS2_PLACEMENT_3D('placement',#379,#264,#265);
#208=AXIS2_PLACEMENT_3D($,#380,#266,#267);
#209=AXIS2_PLACEMENT_3D($,#381,#268,#269);
#210=DIRECTION('axis',(0.,0.,1.));
#211=DIRECTION('refdir',(1.,0.,0.));
#212=DIRECTION('center_axis',(0.,-1.,0.));
#213=DIRECTION('ref_axis',(1.,0.,0.));
#214=DIRECTION('center_axis',(-1.,0.,0.));
#215=DIRECTION('ref_axis',(0.,0.,1.));
#216=DIRECTION('center_axis',(1.,0.,0.));
#217=DIRECTION('ref_axis',(0.,1.,0.));
#218=DIRECTION('center_axis',(1.,0.,0.));
#219=DIRECTION('ref_axis',(0.,1.,0.));
#220=DIRECTION('center_axis',(1.,0.,0.));
#221=DIRECTION('ref_axis',(0.,1.,0.));
#222=DIRECTION('center_axis',(1.,0.,0.));
#223=DIRECTION('ref_axis',(0.,1.,0.));
#224=DIRECTION('center_axis',(1.,0.,0.));
#225=DIRECTION('ref_axis',(0.,1.,0.));
#226=DIRECTION('center_axis',(1.,0.,0.));
#227=DIRECTION('ref_axis',(0.,1.,0.));
#228=DIRECTION('center_axis',(1.,0.,0.));
#229=DIRECTION('ref_axis',(0.,1.,0.));
#230=DIRECTION('center_axis',(1.,0.,0.));
#231=DIRECTION('ref_axis',(0.,1.,0.));
#232=DIRECTION('center_axis',(-1.,0.,0.));
#233=DIRECTION('ref_axis',(0.,1.,0.));
#234=DIRECTION('center_axis',(1.,0.,0.));
#235=DIRECTION('ref_axis',(0.,1.,0.));
#236=DIRECTION('center_axis',(1.,0.,0.));
#237=DIRECTION('ref_axis',(0.,1.,0.));
#238=DIRECTION('center_axis',(1.,0.,0.));
#239=DIRECTION('ref_axis',(0.,1.,0.));
#240=DIRECTION('center_axis',(1.,0.,0.));
#241=DIRECTION('ref_axis',(0.,0.,-1.));
#242=DIRECTION('center_axis',(1.,0.,0.));
#243=DIRECTION('ref_axis',(0.,1.,0.));
#244=DIRECTION('center_axis',(1.,0.,0.));
#245=DIRECTION('ref_axis',(0.,1.,0.));
#246=DIRECTION('axis',(0.,0.,1.));
#247=DIRECTION('refdir',(1.,0.,0.));
#248=DIRECTION('center_axis',(0.,0.,1.));
#249=DIRECTION('ref_axis',(-1.,0.,0.));
#250=DIRECTION('center_axis',(0.,0.,1.));
#251=DIRECTION('ref_axis',(-1.,0.,0.));
#252=DIRECTION('center_axis',(0.,0.,-1.));
#253=DIRECTION('ref_axis',(-1.,0.,0.));
#254=DIRECTION('center_axis',(0.,0.,-1.));
#255=DIRECTION('ref_axis',(-1.,0.,0.));
#256=DIRECTION('center_axis',(0.,0.,1.));
#257=DIRECTION('ref_axis',(-1.,0.,0.));
#258=DIRECTION('center_axis',(0.,0.,1.));
#259=DIRECTION('ref_axis',(-1.,0.,0.));
#260=DIRECTION('center_axis',(0.,0.,-1.));
#261=DIRECTION('ref_axis',(-1.,0.,0.));
#262=DIRECTION('center_axis',(0.,0.,-1.));
#263=DIRECTION('ref_axis',(-1.,0.,0.));
#264=DIRECTION('axis',(0.,0.,1.));
#265=DIRECTION('refdir',(1.,0.,0.));
#266=DIRECTION($,(0.,0.,1.));
#267=DIRECTION($,(1.,0.,0.));
#268=DIRECTION($,(-1.,0.,0.));
#269=DIRECTION($,(0.,0.,1.));
#270=CARTESIAN_POINT('',(0.,0.,0.));
#271=CARTESIAN_POINT('Origin',(-40.,0.,1.5));
#272=CARTESIAN_POINT('',(-40.,-22.494443758404,-0.500000000000001));
#273=CARTESIAN_POINT('Ctrl Pts',(-40.,-22.494443758404,-0.500000000000001));
#274=CARTESIAN_POINT('Ctrl Pts',(-40.2511796545923,-22.494443758404,-0.500000000000001));
#275=CARTESIAN_POINT('Ctrl Pts',(-40.5190902901901,-22.4957354239156,-0.44979153836124));
#276=CARTESIAN_POINT('Ctrl Pts',(-41.0119171499115,-22.4988910579512,-0.245613205148405));
#277=CARTESIAN_POINT('Ctrl Pts',(-41.2368350541956,-22.5005145818299,-0.091643743642805));
#278=CARTESIAN_POINT('Ctrl Pts',(-41.5920720129772,-22.4991565036918,0.26369664112666));
#279=CARTESIAN_POINT('Ctrl Pts',(-41.7459951013252,-22.4960417552894,0.488756379750914));
#280=CARTESIAN_POINT('Ctrl Pts',(-41.9499556721082,-22.4799316641766,0.98155480210426));
#281=CARTESIAN_POINT('Ctrl Pts',(-42.,-22.4666960702621,1.24928276919462));
#282=CARTESIAN_POINT('Ctrl Pts',(-42.,-22.43311474184,1.75188207138749));
#283=CARTESIAN_POINT('Ctrl Pts',(-41.9495388870916,-22.4104977195988,2.02014852194506));
#284=CARTESIAN_POINT('Ctrl Pts',(-41.7448783676273,-22.3605686757535,2.51324025720868));
#285=CARTESIAN_POINT('Ctrl Pts',(-41.5906942457366,-22.333492784626,2.73809576694019));
#286=CARTESIAN_POINT('Ctrl Pts',(-41.2356381491092,-22.2871866248997,3.09242476642865));
#287=CARTESIAN_POINT('Ctrl Pts',(-41.0112531055978,-22.2648713102893,3.24593961675772));
#288=CARTESIAN_POINT('Ctrl Pts',(-40.5190964505139,-22.2342062795341,3.449737619705));
#289=CARTESIAN_POINT('Ctrl Pts',(-40.2513004316178,-22.2261107708929,3.5));
#290=CARTESIAN_POINT('Ctrl Pts',(-39.7486995683822,-22.2261107708929,3.5));
#291=CARTESIAN_POINT('Ctrl Pts',(-39.4809035494861,-22.2342062795341,3.449737619705));
#292=CARTESIAN_POINT('Ctrl Pts',(-38.9887468944022,-22.2648713102893,3.24593961675773));
#293=CARTESIAN_POINT('Ctrl Pts',(-38.7643618508908,-22.2871866248997,3.09242476642865));
#294=CARTESIAN_POINT('Ctrl Pts',(-38.4093057542634,-22.333492784626,2.73809576694019));
#295=CARTESIAN_POINT('Ctrl Pts',(-38.2551216323727,-22.3605686757535,2.51324025720868));
#296=CARTESIAN_POINT('Ctrl Pts',(-38.0504611129083,-22.4104977195988,2.02014852194506));
#297=CARTESIAN_POINT('Ctrl Pts',(-38.,-22.43311474184,1.75188207138749));
#298=CARTESIAN_POINT('Ctrl Pts',(-38.,-22.4666960702621,1.24928276919462));
#299=CARTESIAN_POINT('Ctrl Pts',(-38.0500443278918,-22.4799316641766,0.981554802104261));
#300=CARTESIAN_POINT('Ctrl Pts',(-38.2540048986748,-22.4960417552894,0.488756379750912));
#301=CARTESIAN_POINT('Ctrl Pts',(-38.4079279870228,-22.4991565036918,0.26369664112666));
#302=CARTESIAN_POINT('Ctrl Pts',(-38.7631649458044,-22.5005145818299,-0.0916437436428053));
#303=CARTESIAN_POINT('Ctrl Pts',(-38.9880828500885,-22.4988910579512,-0.245613205148406));
#304=CARTESIAN_POINT('Ctrl Pts',(-39.4809097098099,-22.4957354239156,-0.449791538361238));
#305=CARTESIAN_POINT('Ctrl Pts',(-39.7488203454076,-22.494443758404,-0.500000000000001));
#306=CARTESIAN_POINT('Ctrl Pts',(-40.,-22.494443758404,-0.500000000000001));
#307=CARTESIAN_POINT('',(-40.,-17.64291642558,-0.500000000000001));
#308=CARTESIAN_POINT('Ctrl Pts',(-40.,-17.64291642558,-0.500000000000001));
#309=CARTESIAN_POINT('Ctrl Pts',(-39.7487858026356,-17.64291642558,-0.500000000000001));
#310=CARTESIAN_POINT('Ctrl Pts',(-39.480845405312,-17.6445637602505,-0.449778278388538));
#311=CARTESIAN_POINT('Ctrl Pts',(-38.9879758574052,-17.6485872884696,-0.245555491989062));
#312=CARTESIAN_POINT('Ctrl Pts',(-38.7630439754001,-17.650656850704,-0.0915550931532421));
#313=CARTESIAN_POINT('Ctrl Pts',(-38.4077484309736,-17.6489223856608,0.263908648330662));
#314=CARTESIAN_POINT('Ctrl Pts',(-38.2538234274399,-17.6449464019605,0.489071367245383));
#315=CARTESIAN_POINT('Ctrl Pts',(-38.0499548130304,-17.624392389237,0.981894720645689));
#316=CARTESIAN_POINT('Ctrl Pts',(-38.,-17.6075081335706,1.24953790160516));
#317=CARTESIAN_POINT('Ctrl Pts',(-38.,-17.5646198067329,1.75236479460451));
#318=CARTESIAN_POINT('Ctrl Pts',(-38.0506361557574,-17.5356883866144,2.02088854338046));
#319=CARTESIAN_POINT('Ctrl Pts',(-38.2556486327811,-17.4717830627909,2.5141905870288));
#320=CARTESIAN_POINT('Ctrl Pts',(-38.4099997009664,-17.4371067947288,2.73901788796669));
#321=CARTESIAN_POINT('Ctrl Pts',(-38.76499704516,-17.3778261643593,3.09282957319472));
#322=CARTESIAN_POINT('Ctrl Pts',(-38.989057222723,-17.3492412559387,3.24608657116522));
#323=CARTESIAN_POINT('Ctrl Pts',(-39.4808299114719,-17.3099075210803,3.44968866792846));
#324=CARTESIAN_POINT('Ctrl Pts',(-39.7485831798883,-17.2994942122595,3.5));
#325=CARTESIAN_POINT('Ctrl Pts',(-40.2514168201117,-17.2994942122595,3.5));
#326=CARTESIAN_POINT('Ctrl Pts',(-40.5191700885281,-17.3099075210803,3.44968866792846));
#327=CARTESIAN_POINT('Ctrl Pts',(-41.010942777277,-17.3492412559387,3.24608657116522));
#328=CARTESIAN_POINT('Ctrl Pts',(-41.23500295484,-17.3778261643593,3.09282957319472));
#329=CARTESIAN_POINT('Ctrl Pts',(-41.5900002990336,-17.4371067947288,2.73901788796669));
#330=CARTESIAN_POINT('Ctrl Pts',(-41.7443513672189,-17.4717830627909,2.5141905870288));
#331=CARTESIAN_POINT('Ctrl Pts',(-41.9493638442426,-17.5356883866144,2.02088854338046));
#332=CARTESIAN_POINT('Ctrl Pts',(-42.,-17.5646198067329,1.75236479460451));
#333=CARTESIAN_POINT('Ctrl Pts',(-42.,-17.6075081335706,1.24953790160516));
#334=CARTESIAN_POINT('Ctrl Pts',(-41.9500451869696,-17.624392389237,0.981894720645688));
#335=CARTESIAN_POINT('Ctrl Pts',(-41.7461765725601,-17.6449464019605,0.489071367245383));
#336=CARTESIAN_POINT('Ctrl Pts',(-41.5922515690264,-17.6489223856608,0.263908648330662));
#337=CARTESIAN_POINT('Ctrl Pts',(-41.2369560245999,-17.650656850704,-0.091555093153242));
#338=CARTESIAN_POINT('Ctrl Pts',(-41.0120241425948,-17.6485872884696,-0.245555491989066));
#339=CARTESIAN_POINT('Ctrl Pts',(-40.519154594688,-17.6445637602505,-0.449778278388538));
#340=CARTESIAN_POINT('Ctrl Pts',(-40.2512141973644,-17.64291642558,-0.500000000000001));
#341=CARTESIAN_POINT('Ctrl Pts',(-40.,-17.64291642558,-0.500000000000001));
#342=CARTESIAN_POINT('Origin',(-60.,18.575,0.));
#343=CARTESIAN_POINT('',(-60.,19.5,0.));
#344=CARTESIAN_POINT('Origin',(-60.,0.,0.));
#345=CARTESIAN_POINT('',(-60.,17.65,0.));
#346=CARTESIAN_POINT('Origin',(-60.,0.,0.));
#347=CARTESIAN_POINT('Origin',(-55.,0.,0.));
#348=CARTESIAN_POINT('',(-50.,19.5,0.));
#349=CARTESIAN_POINT('Origin',(-50.,0.,0.));
#350=CARTESIAN_POINT('Origin',(-48.5,0.,0.));
#351=CARTESIAN_POINT('',(-47.,22.5,0.));
#352=CARTESIAN_POINT('Origin',(-47.,0.,0.));
#353=CARTESIAN_POINT('Origin',(-8.88178419700125E-015,0.,0.));
#354=CARTESIAN_POINT('',(47.,22.5,0.));
#355=CARTESIAN_POINT('Origin',(47.,0.,0.));
#356=CARTESIAN_POINT('Origin',(48.5,0.,0.));
#357=CARTESIAN_POINT('',(50.,19.5,0.));
#358=CARTESIAN_POINT('Origin',(50.,0.,0.));
#359=CARTESIAN_POINT('Origin',(55.,0.,0.));
#360=CARTESIAN_POINT('',(60.,19.5,0.));
#361=CARTESIAN_POINT('Origin',(60.,0.,0.));
#362=CARTESIAN_POINT('Origin',(60.,18.575,0.));
#363=CARTESIAN_POINT('',(60.,17.65,0.));
#364=CARTESIAN_POINT('Origin',(60.,0.,0.));
#365=CARTESIAN_POINT('Origin',(0.,0.,0.));
#366=CARTESIAN_POINT('',(0.,0.,0.));
#367=CARTESIAN_POINT('Origin',(0.,0.,0.));
#368=CARTESIAN_POINT('',(16.,1.95943487863577E-015,-225.));
#369=CARTESIAN_POINT('Origin',(0.,0.,-225.));
#370=CARTESIAN_POINT('',(16.,1.95943487863577E-015,225.));
#371=CARTESIAN_POINT('Origin',(0.,0.,225.));
#372=CARTESIAN_POINT('Origin',(0.,0.,-225.));
#373=CARTESIAN_POINT('',(17.5,2.14313189850787E-015,-225.));
#374=CARTESIAN_POINT('Origin',(0.,0.,-225.));
#375=CARTESIAN_POINT('Origin',(0.,0.,0.));
#376=CARTESIAN_POINT('',(17.5,2.14313189850787E-015,225.));
#377=CARTESIAN_POINT('Origin',(0.,0.,225.));
#378=CARTESIAN_POINT('Origin',(0.,0.,225.));
#379=CARTESIAN_POINT('',(0.,0.,0.));
#380=CARTESIAN_POINT($,(0.,0.,0.));
#381=CARTESIAN_POINT($,(0.,0.,0.));
#382=UNCERTAINTY_MEASURE_WITH_UNIT(LENGTH_MEASURE(0.01),#388,
'DISTANCE_ACCURACY_VALUE',
'Maximum model space distance between geometric entities at asserted c
onnectivities');
#383=UNCERTAINTY_MEASURE_WITH_UNIT(LENGTH_MEASURE(0.01),#388,
'DISTANCE_ACCURACY_VALUE',
'Maximum model space distance between geometric entities at asserted c
onnectivities');
#384=UNCERTAINTY_MEASURE_WITH_UNIT(LENGTH_MEASURE(0.01),#388,
'DISTANCE_ACCURACY_VALUE',
'Maximum model space distance between geometric entities at asserted c
onnectivities');
#385=(
GEOMETRIC_REPRESENTATION_CONTEXT(3)
GLOBAL_UNCERTAINTY_ASSIGNED_CONTEXT((#382))
GLOBAL_UNIT_ASSIGNED_CONTEXT((#388,#391,#389))
REPRESENTATION_CONTEXT('','3D')
);
#386=(
GEOMETRIC_REPRESENTATION_CONTEXT(3)
GLOBAL_UNCERTAINTY_ASSIGNED_CONTEXT((#383))
GLOBAL_UNIT_ASSIGNED_CONTEXT((#388,#391,#389))
REPRESENTATION_CONTEXT('','3D')
);
#387=(
GEOMETRIC_REPRESENTATION_CONTEXT(3)
GLOBAL_UNCERTAINTY_ASSIGNED_CONTEXT((#384))
GLOBAL_UNIT_ASSIGNED_CONTEXT((#388,#391,#389))
REPRESENTATION_CONTEXT('','3D')
);
#388=(
LENGTH_UNIT()
NAMED_UNIT(*)
SI_UNIT(.MILLI.,.METRE.)
);
#389=(
NAMED_UNIT(*)
SI_UNIT($,.STERADIAN.)
SOLID_ANGLE_UNIT()
);
#390=DIMENSIONAL_EXPONENTS(0.,0.,0.,0.,0.,0.,0.);
#391=(
CONVERSION_BASED_UNIT('degree',#393)
NAMED_UNIT(#390)
PLANE_ANGLE_UNIT()
);
#392=(
NAMED_UNIT(*)
PLANE_ANGLE_UNIT()
SI_UNIT($,.RADIAN.)
);
#393=PLANE_ANGLE_MEASURE_WITH_UNIT(PLANE_ANGLE_MEASURE(0.01745329252),#392);
#394=SHAPE_DEFINITION_REPRESENTATION(#397,#402);
#395=SHAPE_DEFINITION_REPRESENTATION(#398,#403);
#396=SHAPE_DEFINITION_REPRESENTATION(#399,#404);
#397=PRODUCT_DEFINITION_SHAPE('',$,#406);
#398=PRODUCT_DEFINITION_SHAPE('',$,#407);
#399=PRODUCT_DEFINITION_SHAPE('',$,#408);
#400=PRODUCT_DEFINITION_SHAPE($,$,#16);
#401=PRODUCT_DEFINITION_SHAPE($,$,#17);
#402=SHAPE_REPRESENTATION('',(#180),#385);
#403=SHAPE_REPRESENTATION('',(#198),#386);
#404=SHAPE_REPRESENTATION('',(#207,#208,#209),#387);
#405=PRODUCT_DEFINITION_CONTEXT('3D Mechanical Parts',#413,'design');
#406=PRODUCT_DEFINITION('102552','102552',#409,#405);
#407=PRODUCT_DEFINITION('39006','39006',#410,#405);
#408=PRODUCT_DEFINITION('90984','90984',#411,#405);
#409=PRODUCT_DEFINITION_FORMATION('',$,#415);
#410=PRODUCT_DEFINITION_FORMATION('',$,#416);
#411=PRODUCT_DEFINITION_FORMATION('',$,#417);
#412=APPLICATION_PROTOCOL_DEFINITION('international standard',
'automotive_design',2009,#413);
#413=APPLICATION_CONTEXT(
'Core Data for Automotive Mechanical Design Process');
#414=PRODUCT_CONTEXT('3D Mechanical Parts',#413,'mechanical');
#415=PRODUCT('102552','102552',$,(#414));
#416=PRODUCT('39006','39006',$,(#414));
#417=PRODUCT('90984','90984',$,(#414));
#418=PRESENTATION_STYLE_ASSIGNMENT((#420));
#419=PRESENTATION_STYLE_ASSIGNMENT((#421));
#420=SURFACE_STYLE_USAGE(.BOTH.,#422);
#421=SURFACE_STYLE_USAGE(.BOTH.,#423);
#422=SURFACE_SIDE_STYLE($,(#424));
#423=SURFACE_SIDE_STYLE($,(#425));
#424=SURFACE_STYLE_FILL_AREA(#426);
#425=SURFACE_STYLE_FILL_AREA(#427);
#426=FILL_AREA_STYLE($,(#428));
#427=FILL_AREA_STYLE($,(#429));
#428=FILL_AREA_STYLE_COLOUR($,#430);
#429=FILL_AREA_STYLE_COLOUR($,#431);
#430=COLOUR_RGB('',0.949019607843137,0.92156862745098,0.929411764705882);
#431=COLOUR_RGB('',1.,1.,1.);
ENDSEC;
END-ISO-10303-21;
