ISO-10303-21;
HEADER;
FILE_DESCRIPTION (( 'STEP AP214' ),
    '1' );
FILE_NAME ('CR 2''''x1.5''''.STEP',
    '2026-01-13T08:31:35',
    ( '' ),
    ( '' ),
    'SwSTEP 2.0',
    'SolidWorks 2018',
    '' );
FILE_SCHEMA (( 'AUTOMOTIVE_DESIGN' ));
ENDSEC;

DATA;
#1 = UNCERTAINTY_MEASURE_WITH_UNIT (LENGTH_MEASURE( 1.000000000000000082E-05 ), #63, 'distance_accuracy_value', 'NONE');
#2 = FACE_OUTER_BOUND ( 'NONE', #24, .T. ) ;
#3 = EDGE_CURVE ( 'NONE', #132, #84, #16, .T. ) ;
#4 = ORIENTED_EDGE ( 'NONE', *, *, #25, .F. ) ;
#5 = AXIS2_PLACEMENT_3D ( 'NONE', #175, #92, #76 ) ;
#6 = ORIENTED_EDGE ( 'NONE', *, *, #204, .T. ) ;
#7 = EDGE_CURVE ( 'NONE', #199, #84, #98, .T. ) ;
#8 = ORIENTED_EDGE ( 'NONE', *, *, #22, .F. ) ;
#9 = DIRECTION ( 'NONE',  ( -1.000000000000000000, -1.051347561198064835E-16, -0.0000000000000000000 ) ) ;
#10 = ORIENTED_EDGE ( 'NONE', *, *, #7, .T. ) ;
#11 = DIRECTION ( 'NONE',  ( -0.9954035009216084529, -0.09576988228563979022, 0.0000000000000000000 ) ) ;
#12 =( LENGTH_UNIT ( ) NAMED_UNIT ( * ) SI_UNIT ( .MILLI., .METRE. ) );
#13 = DIRECTION ( 'NONE',  ( -1.000000000000000000, -1.051347561198064835E-16, -0.0000000000000000000 ) ) ;
#14 = LINE ( 'NONE', #142, #49 ) ;
#15 = STYLED_ITEM ( 'NONE', ( #17 ), #20 ) ;
#16 = CIRCLE ( 'NONE', #44, 23.75000000000000000 ) ;
#17 = PRESENTATION_STYLE_ASSIGNMENT (( #124 ) ) ;
#18 = AXIS2_PLACEMENT_3D ( 'NONE', #57, #138, #23 ) ;
#19 = ORIENTED_EDGE ( 'NONE', *, *, #198, .F. ) ;
#20 = ADVANCED_BREP_SHAPE_REPRESENTATION ( 'CR 2''''''''x1.5''''''''', ( #34, #97 ), #125 ) ;
#21 = CONICAL_SURFACE ( 'NONE', #95, 19.04999999999999361, 0.09591688799771523610 ) ;
#22 = EDGE_CURVE ( 'NONE', #145, #211, #173, .T. ) ;
#23 = DIRECTION ( 'NONE',  ( 0.0000000000000000000, -1.000000000000000000, 0.0000000000000000000 ) ) ;
#24 = EDGE_LOOP ( 'NONE', ( #192, #67, #96, #77 ) ) ;
#25 = EDGE_CURVE ( 'NONE', #185, #43, #214, .T. ) ;
#26 = SHAPE_DEFINITION_REPRESENTATION ( #180, #20 ) ;
#27 = CARTESIAN_POINT ( 'NONE',  ( 66.00000000000000000, -9.567502755274265525, 0.0000000000000000000 ) ) ;
#28 = APPLICATION_CONTEXT ( 'automotive_design' ) ;
#29 = EDGE_CURVE ( 'NONE', #36, #132, #83, .T. ) ;
#30 = CARTESIAN_POINT ( 'NONE',  ( 66.00000000000000000, 9.482497244725728081, 2.721777511104992060E-15 ) ) ;
#31 = DIRECTION ( 'NONE',  ( 0.0000000000000000000, -1.000000000000000000, 0.0000000000000000000 ) ) ;
#32 = ORIENTED_EDGE ( 'NONE', *, *, #3, .F. ) ;
#33 = VECTOR ( 'NONE', #176, 1000.000000000000114 ) ;
#34 = MANIFOLD_SOLID_BREP ( 'Revolve1', #101 ) ;
#35 = AXIS2_PLACEMENT_3D ( 'NONE', #102, #9, #139 ) ;
#36 = VERTEX_POINT ( 'NONE', #208 ) ;
#37 = ORIENTED_EDGE ( 'NONE', *, *, #201, .F. ) ;
#38 = SURFACE_STYLE_FILL_AREA ( #88 ) ;
#39 = FACE_BOUND ( 'NONE', #166, .T. ) ;
#40 = FACE_OUTER_BOUND ( 'NONE', #111, .T. ) ;
#41 = ORIENTED_EDGE ( 'NONE', *, *, #69, .T. ) ;
#42 = ADVANCED_FACE ( 'NONE', ( #163, #40 ), #151, .F. ) ;
#43 = VERTEX_POINT ( 'NONE', #117 ) ;
#44 = AXIS2_PLACEMENT_3D ( 'NONE', #120, #148, #59 ) ;
#45 = DIRECTION ( 'NONE',  ( -1.000000000000000000, -1.051347561198064835E-16, 0.0000000000000000000 ) ) ;
#46 = CARTESIAN_POINT ( 'NONE',  ( 2.496950457845403924E-15, -9.567502755274272630, 0.0000000000000000000 ) ) ;
#47 = DIRECTION ( 'NONE',  ( 1.051347561198064835E-16, -1.000000000000000000, 0.0000000000000000000 ) ) ;
#48 =( NAMED_UNIT ( * ) SI_UNIT ( $, .STERADIAN. ) SOLID_ANGLE_UNIT ( ) );
#49 = VECTOR ( 'NONE', #11, 1000.000000000000114 ) ;
#50 = ORIENTED_EDGE ( 'NONE', *, *, #112, .F. ) ;
#51 = EDGE_CURVE ( 'NONE', #84, #132, #108, .T. ) ;
#52 = ORIENTED_EDGE ( 'NONE', *, *, #112, .T. ) ;
#53 = PRODUCT_RELATED_PRODUCT_CATEGORY ( 'part', '', ( #115 ) ) ;
#54 = EDGE_LOOP ( 'NONE', ( #19, #8 ) ) ;
#55 = ORIENTED_EDGE ( 'NONE', *, *, #51, .F. ) ;
#56 = ADVANCED_FACE ( 'NONE', ( #146 ), #21, .T. ) ;
#57 = CARTESIAN_POINT ( 'NONE',  ( 66.00000000000000000, -9.567502755274265525, 0.0000000000000000000 ) ) ;
#58 = AXIS2_PLACEMENT_3D ( 'NONE', #72, #193, #172 ) ;
#59 = DIRECTION ( 'NONE',  ( 1.051347561198064835E-16, -1.000000000000000000, 0.0000000000000000000 ) ) ;
#60 = CARTESIAN_POINT ( 'NONE',  ( 66.00000000000000000, -9.567502755274265525, 0.0000000000000000000 ) ) ;
#61 = CARTESIAN_POINT ( 'NONE',  ( 66.00000000000000000, -9.567502755274265525, 0.0000000000000000000 ) ) ;
#62 = DIRECTION ( 'NONE',  ( -1.000000000000000000, -1.051347561198064835E-16, -0.0000000000000000000 ) ) ;
#63 =( LENGTH_UNIT ( ) NAMED_UNIT ( * ) SI_UNIT ( .MILLI., .METRE. ) );
#64 = DIRECTION ( 'NONE',  ( 1.051347561198064835E-16, -1.000000000000000000, 0.0000000000000000000 ) ) ;
#65 = APPLICATION_PROTOCOL_DEFINITION ( 'draft international standard', 'automotive_design', 1998, #28 ) ;
#66 = ORIENTED_EDGE ( 'NONE', *, *, #22, .T. ) ;
#67 = ORIENTED_EDGE ( 'NONE', *, *, #29, .T. ) ;
#68 = AXIS2_PLACEMENT_3D ( 'NONE', #27, #143, #179 ) ;
#69 = EDGE_CURVE ( 'NONE', #43, #185, #184, .T. ) ;
#70 = ORIENTED_EDGE ( 'NONE', *, *, #204, .F. ) ;
#71 = CONICAL_SURFACE ( 'NONE', #131, 19.04999999999999361, 0.09591688799771523610 ) ;
#72 = CARTESIAN_POINT ( 'NONE',  ( 2.670422805443084633E-15, -9.567502755274272630, 0.0000000000000000000 ) ) ;
#73 =( LENGTH_UNIT ( ) NAMED_UNIT ( * ) SI_UNIT ( .MILLI., .METRE. ) );
#74 =( NAMED_UNIT ( * ) PLANE_ANGLE_UNIT ( ) SI_UNIT ( $, .RADIAN. ) );
#75 =( GEOMETRIC_REPRESENTATION_CONTEXT ( 3 ) GLOBAL_UNCERTAINTY_ASSIGNED_CONTEXT ( ( #157 ) ) GLOBAL_UNIT_ASSIGNED_CONTEXT ( ( #73, #74, #206 ) ) REPRESENTATION_CONTEXT ( 'NONE', 'WORKASPACE' ) );
#76 = DIRECTION ( 'NONE',  ( 1.051347561198064835E-16, -1.000000000000000000, 0.0000000000000000000 ) ) ;
#77 = ORIENTED_EDGE ( 'NONE', *, *, #7, .F. ) ;
#78 = FILL_AREA_STYLE_COLOUR ( '', #113 ) ;
#79 = CARTESIAN_POINT ( 'NONE',  ( 0.0000000000000000000, 14.18249724472572737, 2.908536147974964107E-15 ) ) ;
#80 = CARTESIAN_POINT ( 'NONE',  ( 0.0000000000000000000, 0.0000000000000000000, 0.0000000000000000000 ) ) ;
#81 = CIRCLE ( 'NONE', #213, 17.39999999999999147 ) ;
#82 = UNCERTAINTY_MEASURE_WITH_UNIT (LENGTH_MEASURE( 1.000000000000000082E-05 ), #12, 'distance_accuracy_value', 'NONE');
#83 = LINE ( 'NONE', #136, #127 ) ;
#84 = VERTEX_POINT ( 'NONE', #122 ) ;
#85 = PRODUCT_DEFINITION_FORMATION_WITH_SPECIFIED_SOURCE ( 'ANY', '', #115, .NOT_KNOWN. ) ;
#86 = EDGE_LOOP ( 'NONE', ( #207, #37, #10, #110 ) ) ;
#87 = PRESENTATION_STYLE_ASSIGNMENT (( #103 ) ) ;
#88 = FILL_AREA_STYLE ('',( #189 ) ) ;
#89 = DIRECTION ( 'NONE',  ( -1.051347561198064835E-16, 1.000000000000000000, 0.0000000000000000000 ) ) ;
#90 = VECTOR ( 'NONE', #170, 1000.000000000000114 ) ;
#91 = CARTESIAN_POINT ( 'NONE',  ( 66.00000000000000000, -28.61750275527425913, 0.0000000000000000000 ) ) ;
#92 = DIRECTION ( 'NONE',  ( -1.000000000000000000, -1.051347561198064835E-16, -0.0000000000000000000 ) ) ;
#93 =( NAMED_UNIT ( * ) PLANE_ANGLE_UNIT ( ) SI_UNIT ( $, .RADIAN. ) );
#94 = PRODUCT_DEFINITION_CONTEXT ( 'detailed design', #28, 'design' ) ;
#95 = AXIS2_PLACEMENT_3D ( 'NONE', #150, #104, #153 ) ;
#96 = ORIENTED_EDGE ( 'NONE', *, *, #3, .T. ) ;
#97 = AXIS2_PLACEMENT_3D ( 'NONE', #80, #105, #119 ) ;
#98 = LINE ( 'NONE', #195, #90 ) ;
#99 = FACE_OUTER_BOUND ( 'NONE', #54, .T. ) ;
#100 = PRODUCT_DEFINITION ( 'UNKNOWN', '', #85, #94 ) ;
#101 = CLOSED_SHELL ( 'NONE', ( #116, #137, #56, #190, #114, #42 ) ) ;
#102 = CARTESIAN_POINT ( 'NONE',  ( 2.496950457845403924E-15, -9.567502755274272630, 0.0000000000000000000 ) ) ;
#103 = SURFACE_STYLE_USAGE ( .BOTH. , #169 ) ;
#104 = DIRECTION ( 'NONE',  ( -1.000000000000000000, -1.051347561198064835E-16, -0.0000000000000000000 ) ) ;
#105 = DIRECTION ( 'NONE',  ( 0.0000000000000000000, 0.0000000000000000000, 1.000000000000000000 ) ) ;
#106 = CARTESIAN_POINT ( 'NONE',  ( 2.496950457845403924E-15, -9.567502755274272630, 0.0000000000000000000 ) ) ;
#107 = DIRECTION ( 'NONE',  ( 0.0000000000000000000, -1.000000000000000000, 0.0000000000000000000 ) ) ;
#108 = CIRCLE ( 'NONE', #35, 23.75000000000000000 ) ;
#109 = AXIS2_PLACEMENT_3D ( 'NONE', #46, #62, #64 ) ;
#110 = ORIENTED_EDGE ( 'NONE', *, *, #51, .T. ) ;
#111 = EDGE_LOOP ( 'NONE', ( #203, #41 ) ) ;
#112 = EDGE_CURVE ( 'NONE', #211, #185, #14, .T. ) ;
#113 = COLOUR_RGB ( '',0.7921568627450980005, 0.8196078431372548767, 0.9333333333333333481 ) ;
#114 = ADVANCED_FACE ( 'NONE', ( #147 ), #188, .F. ) ;
#115 = PRODUCT ( 'CR 2''''''''x1.5''''''''', 'CR 2''''''''x1.5''''''''', '', ( #181 ) ) ;
#116 = ADVANCED_FACE ( 'NONE', ( #2 ), #128, .F. ) ;
#117 = CARTESIAN_POINT ( 'NONE',  ( 2.670422805443084633E-15, 15.83249724472572595, 3.110602869834276865E-15 ) ) ;
#118 = EDGE_CURVE ( 'NONE', #36, #199, #133, .T. ) ;
#119 = DIRECTION ( 'NONE',  ( 1.000000000000000000, 0.0000000000000000000, 0.0000000000000000000 ) ) ;
#120 = CARTESIAN_POINT ( 'NONE',  ( 2.496950457845403924E-15, -9.567502755274272630, 0.0000000000000000000 ) ) ;
#121 = ORIENTED_EDGE ( 'NONE', *, *, #118, .T. ) ;
#122 = CARTESIAN_POINT ( 'NONE',  ( 4.993900915690807848E-15, -33.31750275527426908, 0.0000000000000000000 ) ) ;
#123 =( NAMED_UNIT ( * ) SI_UNIT ( $, .STERADIAN. ) SOLID_ANGLE_UNIT ( ) );
#124 = SURFACE_STYLE_USAGE ( .BOTH. , #212 ) ;
#125 =( GEOMETRIC_REPRESENTATION_CONTEXT ( 3 ) GLOBAL_UNCERTAINTY_ASSIGNED_CONTEXT ( ( #1 ) ) GLOBAL_UNIT_ASSIGNED_CONTEXT ( ( #63, #141, #48 ) ) REPRESENTATION_CONTEXT ( 'NONE', 'WORKASPACE' ) );
#126 = DIRECTION ( 'NONE',  ( -1.000000000000000000, -1.051347561198064835E-16, -0.0000000000000000000 ) ) ;
#127 = VECTOR ( 'NONE', #135, 1000.000000000000114 ) ;
#128 = CONICAL_SURFACE ( 'NONE', #109, 23.75000000000000000, 0.09591688799771529161 ) ;
#129 = AXIS2_PLACEMENT_3D ( 'NONE', #191, #149, #89 ) ;
#130 = ORIENTED_EDGE ( 'NONE', *, *, #201, .T. ) ;
#131 = AXIS2_PLACEMENT_3D ( 'NONE', #178, #126, #31 ) ;
#132 = VERTEX_POINT ( 'NONE', #79 ) ;
#133 = CIRCLE ( 'NONE', #68, 17.39999999999999147 ) ;
#134 = PRESENTATION_LAYER_ASSIGNMENT (  '', '', ( #15 ) ) ;
#135 = DIRECTION ( 'NONE',  ( -0.9954035009216084529, 0.09576988228563960981, 1.172842797958274840E-17 ) ) ;
#136 = CARTESIAN_POINT ( 'NONE',  ( 0.0000000000000000000, 14.18249724472572737, 2.908536147974964107E-15 ) ) ;
#137 = ADVANCED_FACE ( 'NONE', ( #202 ), #71, .T. ) ;
#138 = DIRECTION ( 'NONE',  ( -1.000000000000000000, -1.051347561198064835E-16, -0.0000000000000000000 ) ) ;
#139 = DIRECTION ( 'NONE',  ( 1.051347561198064835E-16, -1.000000000000000000, 0.0000000000000000000 ) ) ;
#140 = ORIENTED_EDGE ( 'NONE', *, *, #69, .F. ) ;
#141 =( NAMED_UNIT ( * ) PLANE_ANGLE_UNIT ( ) SI_UNIT ( $, .RADIAN. ) );
#142 = CARTESIAN_POINT ( 'NONE',  ( 66.00000000000000000, -28.61750275527425913, 0.0000000000000000000 ) ) ;
#143 = DIRECTION ( 'NONE',  ( -1.000000000000000000, -1.051347561198064835E-16, -0.0000000000000000000 ) ) ;
#144 = APPLICATION_PROTOCOL_DEFINITION ( 'draft international standard', 'automotive_design', 1998, #156 ) ;
#145 = VERTEX_POINT ( 'NONE', #30 ) ;
#146 = FACE_OUTER_BOUND ( 'NONE', #161, .T. ) ;
#147 = FACE_OUTER_BOUND ( 'NONE', #86, .T. ) ;
#148 = DIRECTION ( 'NONE',  ( -1.000000000000000000, -1.051347561198064835E-16, -0.0000000000000000000 ) ) ;
#149 = DIRECTION ( 'NONE',  ( 1.000000000000000000, 1.051347561198064835E-16, 0.0000000000000000000 ) ) ;
#150 = CARTESIAN_POINT ( 'NONE',  ( 66.00000000000000000, -9.567502755274265525, 0.0000000000000000000 ) ) ;
#151 = PLANE ( 'NONE',  #129 ) ;
#152 = CARTESIAN_POINT ( 'NONE',  ( 2.670422805443084633E-15, -34.96750275527426766, 0.0000000000000000000 ) ) ;
#153 = DIRECTION ( 'NONE',  ( 0.0000000000000000000, -1.000000000000000000, 0.0000000000000000000 ) ) ;
#154 = DIRECTION ( 'NONE',  ( 1.051347561198064835E-16, -1.000000000000000000, 0.0000000000000000000 ) ) ;
#155 = DIRECTION ( 'NONE',  ( -1.000000000000000000, -1.051347561198064835E-16, -0.0000000000000000000 ) ) ;
#156 = APPLICATION_CONTEXT ( 'automotive_design' ) ;
#157 = UNCERTAINTY_MEASURE_WITH_UNIT (LENGTH_MEASURE( 1.000000000000000082E-05 ), #73, 'distance_accuracy_value', 'NONE');
#158 = PLANE ( 'NONE',  #187 ) ;
#159 = ORIENTED_EDGE ( 'NONE', *, *, #198, .T. ) ;
#160 = LINE ( 'NONE', #209, #33 ) ;
#161 = EDGE_LOOP ( 'NONE', ( #70, #66, #52, #140 ) ) ;
#162 = MECHANICAL_DESIGN_GEOMETRIC_PRESENTATION_REPRESENTATION (  '', ( #183 ), #75 ) ;
#163 = FACE_BOUND ( 'NONE', #168, .T. ) ;
#164 =( GEOMETRIC_REPRESENTATION_CONTEXT ( 3 ) GLOBAL_UNCERTAINTY_ASSIGNED_CONTEXT ( ( #82 ) ) GLOBAL_UNIT_ASSIGNED_CONTEXT ( ( #12, #93, #123 ) ) REPRESENTATION_CONTEXT ( 'NONE', 'WORKASPACE' ) );
#165 = AXIS2_PLACEMENT_3D ( 'NONE', #60, #13, #174 ) ;
#166 = EDGE_LOOP ( 'NONE', ( #130, #121 ) ) ;
#167 = PRESENTATION_LAYER_ASSIGNMENT (  '', '', ( #183 ) ) ;
#168 = EDGE_LOOP ( 'NONE', ( #55, #32 ) ) ;
#169 = SURFACE_SIDE_STYLE ('',( #38 ) ) ;
#170 = DIRECTION ( 'NONE',  ( -0.9954035009216084529, -0.09576988228563984573, 0.0000000000000000000 ) ) ;
#171 = CARTESIAN_POINT ( 'NONE',  ( 66.00000000000000000, -26.96750275527425700, 0.0000000000000000000 ) ) ;
#172 = DIRECTION ( 'NONE',  ( 1.051347561198064835E-16, -1.000000000000000000, 0.0000000000000000000 ) ) ;
#173 = CIRCLE ( 'NONE', #18, 19.04999999999999361 ) ;
#174 = DIRECTION ( 'NONE',  ( 0.0000000000000000000, -1.000000000000000000, 0.0000000000000000000 ) ) ;
#175 = CARTESIAN_POINT ( 'NONE',  ( 2.670422805443084633E-15, -9.567502755274272630, 0.0000000000000000000 ) ) ;
#176 = DIRECTION ( 'NONE',  ( -0.9954035009216084529, 0.09576988228563955430, 1.172842797958274224E-17 ) ) ;
#177 = AXIS2_PLACEMENT_3D ( 'NONE', #106, #155, #154 ) ;
#178 = CARTESIAN_POINT ( 'NONE',  ( 66.00000000000000000, -9.567502755274265525, 0.0000000000000000000 ) ) ;
#179 = DIRECTION ( 'NONE',  ( 0.0000000000000000000, -1.000000000000000000, 0.0000000000000000000 ) ) ;
#180 = PRODUCT_DEFINITION_SHAPE ( 'NONE', 'NONE',  #100 ) ;
#181 = PRODUCT_CONTEXT ( 'NONE', #156, 'mechanical' ) ;
#182 = EDGE_LOOP ( 'NONE', ( #159, #6, #4, #50 ) ) ;
#183 = STYLED_ITEM ( 'NONE', ( #87 ), #34 ) ;
#184 = CIRCLE ( 'NONE', #5, 25.39999999999999858 ) ;
#185 = VERTEX_POINT ( 'NONE', #152 ) ;
#186 = COLOUR_RGB ( '',0.7921568627450980005, 0.8196078431372548767, 0.9333333333333333481 ) ;
#187 = AXIS2_PLACEMENT_3D ( 'NONE', #194, #45, #47 ) ;
#188 = CONICAL_SURFACE ( 'NONE', #177, 23.75000000000000000, 0.09591688799771529161 ) ;
#189 = FILL_AREA_STYLE_COLOUR ( '', #186 ) ;
#190 = ADVANCED_FACE ( 'NONE', ( #99, #39 ), #158, .F. ) ;
#191 = CARTESIAN_POINT ( 'NONE',  ( -8.673617379884028076E-17, 15.83249724472572595, 0.0000000000000000000 ) ) ;
#192 = ORIENTED_EDGE ( 'NONE', *, *, #118, .F. ) ;
#193 = DIRECTION ( 'NONE',  ( -1.000000000000000000, -1.051347561198064835E-16, -0.0000000000000000000 ) ) ;
#194 = CARTESIAN_POINT ( 'NONE',  ( 66.00000000000000000, 9.482497244725728081, 0.0000000000000000000 ) ) ;
#195 = CARTESIAN_POINT ( 'NONE',  ( 4.993900915690807848E-15, -33.31750275527426908, 0.0000000000000000000 ) ) ;
#196 = FILL_AREA_STYLE ('',( #78 ) ) ;
#197 = SURFACE_STYLE_FILL_AREA ( #196 ) ;
#198 = EDGE_CURVE ( 'NONE', #211, #145, #200, .T. ) ;
#199 = VERTEX_POINT ( 'NONE', #171 ) ;
#200 = CIRCLE ( 'NONE', #165, 19.04999999999999361 ) ;
#201 = EDGE_CURVE ( 'NONE', #199, #36, #81, .T. ) ;
#202 = FACE_OUTER_BOUND ( 'NONE', #182, .T. ) ;
#203 = ORIENTED_EDGE ( 'NONE', *, *, #25, .T. ) ;
#204 = EDGE_CURVE ( 'NONE', #145, #43, #160, .T. ) ;
#205 = MECHANICAL_DESIGN_GEOMETRIC_PRESENTATION_REPRESENTATION (  '', ( #15 ), #164 ) ;
#206 =( NAMED_UNIT ( * ) SI_UNIT ( $, .STERADIAN. ) SOLID_ANGLE_UNIT ( ) );
#207 = ORIENTED_EDGE ( 'NONE', *, *, #29, .F. ) ;
#208 = CARTESIAN_POINT ( 'NONE',  ( 66.00000000000000000, 7.832497244725726837, 2.519710789245678513E-15 ) ) ;
#209 = CARTESIAN_POINT ( 'NONE',  ( 66.00000000000000000, 9.482497244725728081, 2.332952152375706860E-15 ) ) ;
#210 = DIRECTION ( 'NONE',  ( -1.000000000000000000, -1.051347561198064835E-16, -0.0000000000000000000 ) ) ;
#211 = VERTEX_POINT ( 'NONE', #91 ) ;
#212 = SURFACE_SIDE_STYLE ('',( #197 ) ) ;
#213 = AXIS2_PLACEMENT_3D ( 'NONE', #61, #210, #107 ) ;
#214 = CIRCLE ( 'NONE', #58, 25.39999999999999858 ) ;
ENDSEC;
END-ISO-10303-21;
